ISO-10303-21;
HEADER;
FILE_DESCRIPTION (( 'STEP AP203' ),
    '1' );
FILE_NAME ('R4-001.STEP',
    '2022-07-01T06:08:45',
    ( '' ),
    ( '' ),
    'SwSTEP 2.0',
    'SolidWorks 2022',
    '' );
FILE_SCHEMA (( 'CONFIG_CONTROL_DESIGN' ));
ENDSEC;

DATA;
#1 = COORDINATED_UNIVERSAL_TIME_OFFSET ( 1, 0, .AHEAD. ) ;
#2 = DIRECTION ( 'NONE',  ( 1.000000000000000000, 0.000000000000000000, 0.000000000000000000 ) ) ;
#3 = SECURITY_CLASSIFICATION_LEVEL ( 'unclassified' ) ;
#4 = ORIENTED_EDGE ( 'NONE', *, *, #214, .F. ) ;
#5 = EDGE_LOOP ( 'NONE', ( #43, #231 ) ) ;
#6 = CARTESIAN_POINT ( 'NONE',  ( 0.000000000000000000, 0.000000000000000000, -2.000000000000000000 ) ) ;
#7 = CC_DESIGN_DATE_AND_TIME_ASSIGNMENT ( #277, #48, ( #63 ) ) ;
#8 = CARTESIAN_POINT ( 'NONE',  ( 9.000000000000001776, 0.000000000000000000, -2.000000000000000000 ) ) ;
#9 = LOCAL_TIME ( 8, 8, 45.00000000000000000, #114 ) ;
#10 = DESIGN_CONTEXT ( 'detailed design', #308, 'design' ) ;
#11 = DIRECTION ( 'NONE',  ( -1.000000000000000000, 0.000000000000000000, 0.000000000000000000 ) ) ;
#12 = LINE ( 'NONE', #106, #244 ) ;
#13 = CARTESIAN_POINT ( 'NONE',  ( 0.000000000000000000, 0.000000000000000000, -2.000000000000000000 ) ) ;
#14 = CIRCLE ( 'NONE', #113, 5.749999999999998224 ) ;
#15 = DIRECTION ( 'NONE',  ( -1.000000000000000000, 0.000000000000000000, -0.000000000000000000 ) ) ;
#16 = CARTESIAN_POINT ( 'NONE',  ( 5.749999999999998224, 0.000000000000000000, 16.00000000000000000 ) ) ;
#17 = DIRECTION ( 'NONE',  ( 0.000000000000000000, 0.000000000000000000, 1.000000000000000000 ) ) ;
#18 = PERSON_AND_ORGANIZATION ( #222, #167 ) ;
#19 = APPLICATION_PROTOCOL_DEFINITION ( 'international standard', 'config_control_design', 1994, #308 ) ;
#20 = PERSON_AND_ORGANIZATION ( #222, #167 ) ;
#21 = ORIENTED_EDGE ( 'NONE', *, *, #321, .F. ) ;
#22 = CALENDAR_DATE ( 2022, 1, 7 ) ;
#23 = DIRECTION ( 'NONE',  ( -0.000000000000000000, -0.000000000000000000, 1.000000000000000000 ) ) ;
#24 = AXIS2_PLACEMENT_3D ( 'NONE', #101, #98, #203 ) ;
#25 = APPROVAL_ROLE ( '' ) ;
#26 = EDGE_CURVE ( 'NONE', #172, #103, #181, .T. ) ;
#27 = EDGE_LOOP ( 'NONE', ( #177, #300 ) ) ;
#28 = ORIENTED_EDGE ( 'NONE', *, *, #235, .T. ) ;
#29 = ORIENTED_EDGE ( 'NONE', *, *, #178, .F. ) ;
#30 = CIRCLE ( 'NONE', #157, 10.00000000000000178 ) ;
#31 = EDGE_CURVE ( 'NONE', #77, #103, #145, .T. ) ;
#32 = DIRECTION ( 'NONE',  ( 0.000000000000000000, 0.000000000000000000, 1.000000000000000000 ) ) ;
#33 = DIRECTION ( 'NONE',  ( 1.000000000000000000, 0.000000000000000000, 0.000000000000000000 ) ) ;
#34 = CARTESIAN_POINT ( 'NONE',  ( 0.000000000000000000, 0.000000000000000000, 16.00000000000000000 ) ) ;
#35 = CIRCLE ( 'NONE', #306, 9.000000000000001776 ) ;
#36 = CARTESIAN_POINT ( 'NONE',  ( -10.00000000000000178, 0.000000000000000000, 16.00000000000000000 ) ) ;
#37 = VECTOR ( 'NONE', #58, 1000.000000000000000 ) ;
#38 = ADVANCED_FACE ( 'NONE', ( #76 ), #230, .T. ) ;
#39 = PLANE ( 'NONE',  #108 ) ;
#40 = FACE_OUTER_BOUND ( 'NONE', #144, .T. ) ;
#41 = DIRECTION ( 'NONE',  ( -1.000000000000000000, 0.000000000000000000, 0.000000000000000000 ) ) ;
#42 = CARTESIAN_POINT ( 'NONE',  ( 0.000000000000000000, 0.000000000000000000, 0.000000000000000000 ) ) ;
#43 = ORIENTED_EDGE ( 'NONE', *, *, #152, .T. ) ;
#44 = PERSON_AND_ORGANIZATION_ROLE ( 'design_owner' ) ;
#45 = ORIENTED_EDGE ( 'NONE', *, *, #142, .T. ) ;
#46 = DIRECTION ( 'NONE',  ( 0.000000000000000000, 0.000000000000000000, 1.000000000000000000 ) ) ;
#47 = ORIENTED_EDGE ( 'NONE', *, *, #224, .T. ) ;
#48 = DATE_TIME_ROLE ( 'classification_date' ) ;
#49 = PRODUCT_DEFINITION ( 'UNKNOWN', '', #211, #10 ) ;
#50 = PERSON_AND_ORGANIZATION ( #222, #167 ) ;
#51 = VERTEX_POINT ( 'NONE', #179 ) ;
#52 = AXIS2_PLACEMENT_3D ( 'NONE', #323, #60, #165 ) ;
#53 = FACE_OUTER_BOUND ( 'NONE', #112, .T. ) ;
#54 = FACE_BOUND ( 'NONE', #249, .T. ) ;
#55 = APPROVAL_PERSON_ORGANIZATION ( #154, #72, #25 ) ;
#56 = ORIENTED_EDGE ( 'NONE', *, *, #297, .F. ) ;
#57 = CARTESIAN_POINT ( 'NONE',  ( 0.000000000000000000, 0.000000000000000000, 16.00000000000000000 ) ) ;
#58 = DIRECTION ( 'NONE',  ( -0.000000000000000000, -0.000000000000000000, -1.000000000000000000 ) ) ;
#59 = DIRECTION ( 'NONE',  ( -0.000000000000000000, -0.000000000000000000, 1.000000000000000000 ) ) ;
#60 = DIRECTION ( 'NONE',  ( -0.000000000000000000, -0.000000000000000000, -1.000000000000000000 ) ) ;
#61 = CARTESIAN_POINT ( 'NONE',  ( -5.749999999999998224, 7.041719095097278907E-16, -2.000999999999999446 ) ) ;
#62 = EDGE_CURVE ( 'NONE', #312, #258, #140, .T. ) ;
#63 = SECURITY_CLASSIFICATION ( '', '', #3 ) ;
#64 = DIRECTION ( 'NONE',  ( -0.000000000000000000, -0.000000000000000000, -1.000000000000000000 ) ) ;
#65 = ORIENTED_EDGE ( 'NONE', *, *, #31, .T. ) ;
#66 = CARTESIAN_POINT ( 'NONE',  ( -5.749999999999998224, 7.041719095097278907E-16, 16.00000000000000000 ) ) ;
#67 = AXIS2_PLACEMENT_3D ( 'NONE', #107, #84, #317 ) ;
#68 = PERSON_AND_ORGANIZATION ( #222, #167 ) ;
#69 = ORIENTED_EDGE ( 'NONE', *, *, #149, .T. ) ;
#70 = SHAPE_DEFINITION_REPRESENTATION ( #135, #162 ) ;
#71 = EDGE_LOOP ( 'NONE', ( #97, #122, #246, #206 ) ) ;
#72 = APPROVAL ( #175, 'UNSPECIFIED' ) ;
#73 = CARTESIAN_POINT ( 'NONE',  ( -10.00000000000000178, 0.000000000000000000, 0.000000000000000000 ) ) ;
#74 = LOCAL_TIME ( 8, 8, 45.00000000000000000, #117 ) ;
#75 = CIRCLE ( 'NONE', #190, 5.749999999999998224 ) ;
#76 = FACE_OUTER_BOUND ( 'NONE', #71, .T. ) ;
#77 = VERTEX_POINT ( 'NONE', #73 ) ;
#78 = ADVANCED_FACE ( 'NONE', ( #151 ), #102, .F. ) ;
#79 = ORIENTED_EDGE ( 'NONE', *, *, #138, .T. ) ;
#80 =( GEOMETRIC_REPRESENTATION_CONTEXT ( 3 ) GLOBAL_UNCERTAINTY_ASSIGNED_CONTEXT ( ( #132 ) ) GLOBAL_UNIT_ASSIGNED_CONTEXT ( ( #171, #116, #200 ) ) REPRESENTATION_CONTEXT ( 'NONE', 'WORKASPACE' ) );
#81 = ORIENTED_EDGE ( 'NONE', *, *, #149, .F. ) ;
#82 = AXIS2_PLACEMENT_3D ( 'NONE', #212, #289, #285 ) ;
#83 = CARTESIAN_POINT ( 'NONE',  ( 5.749999999999998224, 0.000000000000000000, -2.000999999999999446 ) ) ;
#84 = DIRECTION ( 'NONE',  ( 0.000000000000000000, 0.000000000000000000, 1.000000000000000000 ) ) ;
#85 = DIRECTION ( 'NONE',  ( -1.000000000000000000, 0.000000000000000000, 0.000000000000000000 ) ) ;
#86 = CIRCLE ( 'NONE', #164, 5.749999999999998224 ) ;
#87 = APPROVAL ( #245, 'UNSPECIFIED' ) ;
#88 = FACE_OUTER_BOUND ( 'NONE', #248, .T. ) ;
#89 = PLANE ( 'NONE',  #67 ) ;
#90 = PERSON_AND_ORGANIZATION ( #222, #167 ) ;
#91 = ORIENTED_EDGE ( 'NONE', *, *, #229, .F. ) ;
#92 = DATE_TIME_ROLE ( 'creation_date' ) ;
#93 = CARTESIAN_POINT ( 'NONE',  ( 0.000000000000000000, 0.000000000000000000, 0.000000000000000000 ) ) ;
#94 = APPROVAL_STATUS ( 'not_yet_approved' ) ;
#95 = AXIS2_PLACEMENT_3D ( 'NONE', #217, #219, #238 ) ;
#96 = DIRECTION ( 'NONE',  ( -0.000000000000000000, -0.000000000000000000, -1.000000000000000000 ) ) ;
#97 = ORIENTED_EDGE ( 'NONE', *, *, #62, .F. ) ;
#98 = DIRECTION ( 'NONE',  ( 0.000000000000000000, 0.000000000000000000, -1.000000000000000000 ) ) ;
#99 = ORIENTED_EDGE ( 'NONE', *, *, #62, .T. ) ;
#100 = CC_DESIGN_APPROVAL ( #72, ( #63 ) ) ;
#101 = CARTESIAN_POINT ( 'NONE',  ( 0.000000000000000000, 0.000000000000000000, -2.000000000000000000 ) ) ;
#102 = CYLINDRICAL_SURFACE ( 'NONE', #233, 5.749999999999998224 ) ;
#103 = VERTEX_POINT ( 'NONE', #281 ) ;
#104 = CARTESIAN_POINT ( 'NONE',  ( 0.000000000000000000, 0.000000000000000000, 16.00000000000000000 ) ) ;
#105 = ADVANCED_FACE ( 'NONE', ( #53, #54 ), #313, .F. ) ;
#106 = CARTESIAN_POINT ( 'NONE',  ( -9.000000000000001776, 1.102182119232617911E-15, -2.000000000000000000 ) ) ;
#107 = CARTESIAN_POINT ( 'NONE',  ( 0.000000000000000000, 0.000000000000000000, 16.00000000000000000 ) ) ;
#108 = AXIS2_PLACEMENT_3D ( 'NONE', #137, #241, #15 ) ;
#109 = FACE_OUTER_BOUND ( 'NONE', #210, .T. ) ;
#110 = VECTOR ( 'NONE', #191, 1000.000000000000000 ) ;
#111 = CARTESIAN_POINT ( 'NONE',  ( 0.000000000000000000, 0.000000000000000000, -2.000000000000000000 ) ) ;
#112 = EDGE_LOOP ( 'NONE', ( #170, #314 ) ) ;
#113 = AXIS2_PLACEMENT_3D ( 'NONE', #57, #326, #197 ) ;
#114 = COORDINATED_UNIVERSAL_TIME_OFFSET ( 1, 0, .AHEAD. ) ;
#115 = AXIS2_PLACEMENT_3D ( 'NONE', #253, #125, #307 ) ;
#116 =( NAMED_UNIT ( * ) PLANE_ANGLE_UNIT ( ) SI_UNIT ( $, .RADIAN. ) );
#117 = COORDINATED_UNIVERSAL_TIME_OFFSET ( 1, 0, .AHEAD. ) ;
#118 = CC_DESIGN_PERSON_AND_ORGANIZATION_ASSIGNMENT ( #180, #310, ( #63 ) ) ;
#119 = LOCAL_TIME ( 8, 8, 45.00000000000000000, #304 ) ;
#120 = EDGE_LOOP ( 'NONE', ( #29, #305, #153, #327 ) ) ;
#121 = AXIS2_PLACEMENT_3D ( 'NONE', #34, #290, #240 ) ;
#122 = ORIENTED_EDGE ( 'NONE', *, *, #229, .T. ) ;
#123 = ORIENTED_EDGE ( 'NONE', *, *, #239, .F. ) ;
#124 = CALENDAR_DATE ( 2022, 1, 7 ) ;
#125 = DIRECTION ( 'NONE',  ( 0.000000000000000000, 0.000000000000000000, 1.000000000000000000 ) ) ;
#126 = AXIS2_PLACEMENT_3D ( 'NONE', #6, #23, #2 ) ;
#127 = ORIENTED_EDGE ( 'NONE', *, *, #208, .F. ) ;
#128 = PERSON_AND_ORGANIZATION ( #222, #167 ) ;
#129 = DIRECTION ( 'NONE',  ( 1.000000000000000000, 0.000000000000000000, 0.000000000000000000 ) ) ;
#130 = MANIFOLD_SOLID_BREP ( 'Extrusion3', #274 ) ;
#131 = CC_DESIGN_PERSON_AND_ORGANIZATION_ASSIGNMENT ( #18, #247, ( #49 ) ) ;
#132 = UNCERTAINTY_MEASURE_WITH_UNIT (LENGTH_MEASURE( 1.000000000000000082E-05 ), #171, 'distance_accuracy_value', 'NONE');
#133 = LINE ( 'NONE', #61, #228 ) ;
#134 = LINE ( 'NONE', #83, #110 ) ;
#135 = PRODUCT_DEFINITION_SHAPE ( 'NONE', 'NONE',  #49 ) ;
#136 = FACE_OUTER_BOUND ( 'NONE', #198, .T. ) ;
#137 = CARTESIAN_POINT ( 'NONE',  ( 0.000000000000000000, 0.000000000000000000, -2.000000000000000000 ) ) ;
#138 = EDGE_CURVE ( 'NONE', #195, #329, #86, .T. ) ;
#139 = DIRECTION ( 'NONE',  ( -0.000000000000000000, -0.000000000000000000, -1.000000000000000000 ) ) ;
#140 = CIRCLE ( 'NONE', #24, 9.000000000000001776 ) ;
#141 = DIRECTION ( 'NONE',  ( 1.000000000000000000, 0.000000000000000000, 0.000000000000000000 ) ) ;
#142 = EDGE_CURVE ( 'NONE', #258, #232, #236, .T. ) ;
#143 = APPROVAL_PERSON_ORGANIZATION ( #68, #193, #196 ) ;
#144 = EDGE_LOOP ( 'NONE', ( #251, #4, #227, #65 ) ) ;
#145 = CIRCLE ( 'NONE', #115, 10.00000000000000178 ) ;
#146 = CC_DESIGN_PERSON_AND_ORGANIZATION_ASSIGNMENT ( #90, #44, ( #265 ) ) ;
#147 = APPROVAL_ROLE ( '' ) ;
#148 = ORIENTED_EDGE ( 'NONE', *, *, #321, .T. ) ;
#149 = EDGE_CURVE ( 'NONE', #279, #329, #133, .T. ) ;
#150 = APPROVAL_DATE_TIME ( #182, #72 ) ;
#151 = FACE_OUTER_BOUND ( 'NONE', #299, .T. ) ;
#152 = EDGE_CURVE ( 'NONE', #296, #279, #75, .T. ) ;
#153 = ORIENTED_EDGE ( 'NONE', *, *, #303, .T. ) ;
#154 = PERSON_AND_ORGANIZATION ( #222, #167 ) ;
#155 = VERTEX_POINT ( 'NONE', #161 ) ;
#156 = AXIS2_PLACEMENT_3D ( 'NONE', #294, #96, #271 ) ;
#157 = AXIS2_PLACEMENT_3D ( 'NONE', #160, #243, #33 ) ;
#158 = DIRECTION ( 'NONE',  ( 1.000000000000000000, 0.000000000000000000, -0.000000000000000000 ) ) ;
#159 = ADVANCED_FACE ( 'NONE', ( #40 ), #163, .T. ) ;
#160 = CARTESIAN_POINT ( 'NONE',  ( 0.000000000000000000, 0.000000000000000000, 16.00000000000000000 ) ) ;
#161 = CARTESIAN_POINT ( 'NONE',  ( -10.00000000000000178, 0.000000000000000000, 16.00000000000000000 ) ) ;
#162 = ADVANCED_BREP_SHAPE_REPRESENTATION ( 'R4-001', ( #130, #293 ), #80 ) ;
#163 = CYLINDRICAL_SURFACE ( 'NONE', #320, 10.00000000000000178 ) ;
#164 = AXIS2_PLACEMENT_3D ( 'NONE', #261, #32, #129 ) ;
#165 = DIRECTION ( 'NONE',  ( 1.000000000000000000, 0.000000000000000000, 0.000000000000000000 ) ) ;
#166 = DIRECTION ( 'NONE',  ( -0.000000000000000000, -0.000000000000000000, 1.000000000000000000 ) ) ;
#167 = ORGANIZATION ( 'UNSPECIFIED', 'UNSPECIFIED', '' ) ;
#168 = FACE_OUTER_BOUND ( 'NONE', #120, .T. ) ;
#169 = VECTOR ( 'NONE', #234, 1000.000000000000000 ) ;
#170 = ORIENTED_EDGE ( 'NONE', *, *, #31, .F. ) ;
#171 =( LENGTH_UNIT ( ) NAMED_UNIT ( * ) SI_UNIT ( .MILLI., .METRE. ) );
#172 = VERTEX_POINT ( 'NONE', #187 ) ;
#173 = DIRECTION ( 'NONE',  ( 1.000000000000000000, 0.000000000000000000, 0.000000000000000000 ) ) ;
#174 = CALENDAR_DATE ( 2022, 1, 7 ) ;
#175 = APPROVAL_STATUS ( 'not_yet_approved' ) ;
#176 = CIRCLE ( 'NONE', #156, 9.000000000000001776 ) ;
#177 = ORIENTED_EDGE ( 'NONE', *, *, #214, .T. ) ;
#178 = EDGE_CURVE ( 'NONE', #172, #155, #30, .T. ) ;
#179 = CARTESIAN_POINT ( 'NONE',  ( -9.000000000000001776, 1.102182119232617911E-15, 0.000000000000000000 ) ) ;
#180 = PERSON_AND_ORGANIZATION ( #222, #167 ) ;
#181 = LINE ( 'NONE', #185, #169 ) ;
#182 = DATE_AND_TIME ( #124, #119 ) ;
#183 = CARTESIAN_POINT ( 'NONE',  ( 0.000000000000000000, 0.000000000000000000, 0.000000000000000000 ) ) ;
#184 = CC_DESIGN_PERSON_AND_ORGANIZATION_ASSIGNMENT ( #50, #252, ( #211 ) ) ;
#185 = CARTESIAN_POINT ( 'NONE',  ( 10.00000000000000178, 1.224646799147353454E-15, 16.00000000000000000 ) ) ;
#186 = LINE ( 'NONE', #36, #37 ) ;
#187 = CARTESIAN_POINT ( 'NONE',  ( 10.00000000000000178, 1.224646799147353454E-15, 16.00000000000000000 ) ) ;
#188 = ADVANCED_FACE ( 'NONE', ( #88 ), #322, .F. ) ;
#189 = CYLINDRICAL_SURFACE ( 'NONE', #95, 9.000000000000001776 ) ;
#190 = AXIS2_PLACEMENT_3D ( 'NONE', #13, #318, #11 ) ;
#191 = DIRECTION ( 'NONE',  ( -0.000000000000000000, -0.000000000000000000, 1.000000000000000000 ) ) ;
#192 = CARTESIAN_POINT ( 'NONE',  ( 0.000000000000000000, 0.000000000000000000, -2.000000000000000000 ) ) ;
#193 = APPROVAL ( #94, 'UNSPECIFIED' ) ;
#194 = CARTESIAN_POINT ( 'NONE',  ( 0.000000000000000000, 0.000000000000000000, 16.00000000000000000 ) ) ;
#195 = VERTEX_POINT ( 'NONE', #16 ) ;
#196 = APPROVAL_ROLE ( '' ) ;
#197 = DIRECTION ( 'NONE',  ( 1.000000000000000000, 0.000000000000000000, 0.000000000000000000 ) ) ;
#198 = EDGE_LOOP ( 'NONE', ( #278, #99 ) ) ;
#199 = CC_DESIGN_SECURITY_CLASSIFICATION ( #63, ( #211 ) ) ;
#200 =( NAMED_UNIT ( * ) SI_UNIT ( $, .STERADIAN. ) SOLID_ANGLE_UNIT ( ) );
#201 = ADVANCED_FACE ( 'NONE', ( #267, #263 ), #89, .T. ) ;
#202 = CARTESIAN_POINT ( 'NONE',  ( -9.000000000000001776, 1.102182119232617911E-15, -2.000000000000000000 ) ) ;
#203 = DIRECTION ( 'NONE',  ( -1.000000000000000000, 0.000000000000000000, 0.000000000000000000 ) ) ;
#204 = APPROVAL_DATE_TIME ( #275, #193 ) ;
#205 = AXIS2_PLACEMENT_3D ( 'NONE', #93, #17, #141 ) ;
#206 = ORIENTED_EDGE ( 'NONE', *, *, #142, .F. ) ;
#207 = CARTESIAN_POINT ( 'NONE',  ( 0.000000000000000000, 0.000000000000000000, -2.000999999999999446 ) ) ;
#208 = EDGE_CURVE ( 'NONE', #279, #296, #270, .T. ) ;
#209 = DIRECTION ( 'NONE',  ( -0.000000000000000000, -0.000000000000000000, 1.000000000000000000 ) ) ;
#210 = EDGE_LOOP ( 'NONE', ( #91, #123, #45, #28 ) ) ;
#211 = PRODUCT_DEFINITION_FORMATION_WITH_SPECIFIED_SOURCE ( 'ANY', '', #265, .NOT_KNOWN. ) ;
#212 = CARTESIAN_POINT ( 'NONE',  ( 0.000000000000000000, 0.000000000000000000, -2.000999999999999446 ) ) ;
#213 = FACE_BOUND ( 'NONE', #5, .T. ) ;
#214 = EDGE_CURVE ( 'NONE', #155, #172, #260, .T. ) ;
#215 = APPLICATION_CONTEXT ( 'configuration controlled 3d designs of mechanical parts and assemblies' ) ;
#216 = CARTESIAN_POINT ( 'NONE',  ( 9.000000000000001776, 0.000000000000000000, 0.000000000000000000 ) ) ;
#217 = CARTESIAN_POINT ( 'NONE',  ( 0.000000000000000000, 0.000000000000000000, -2.000000000000000000 ) ) ;
#218 = AXIS2_PLACEMENT_3D ( 'NONE', #111, #59, #264 ) ;
#219 = DIRECTION ( 'NONE',  ( -0.000000000000000000, -0.000000000000000000, 1.000000000000000000 ) ) ;
#220 = APPROVAL_PERSON_ORGANIZATION ( #20, #87, #147 ) ;
#221 = DATE_AND_TIME ( #225, #74 ) ;
#222 = PERSON ( 'UNSPECIFIED', 'UNSPECIFIED', 'UNSPECIFIED', ('UNSPECIFIED'), ('UNSPECIFIED'), ('UNSPECIFIED') ) ;
#223 = ORIENTED_EDGE ( 'NONE', *, *, #152, .F. ) ;
#224 = EDGE_CURVE ( 'NONE', #296, #195, #134, .T. ) ;
#225 = CALENDAR_DATE ( 2022, 1, 7 ) ;
#226 = ADVANCED_FACE ( 'NONE', ( #109 ), #189, .T. ) ;
#227 = ORIENTED_EDGE ( 'NONE', *, *, #259, .T. ) ;
#228 = VECTOR ( 'NONE', #166, 1000.000000000000000 ) ;
#229 = EDGE_CURVE ( 'NONE', #312, #51, #12, .T. ) ;
#230 = CYLINDRICAL_SURFACE ( 'NONE', #126, 9.000000000000001776 ) ;
#231 = ORIENTED_EDGE ( 'NONE', *, *, #208, .T. ) ;
#232 = VERTEX_POINT ( 'NONE', #216 ) ;
#233 = AXIS2_PLACEMENT_3D ( 'NONE', #207, #209, #255 ) ;
#234 = DIRECTION ( 'NONE',  ( -0.000000000000000000, -0.000000000000000000, -1.000000000000000000 ) ) ;
#235 = EDGE_CURVE ( 'NONE', #232, #51, #316, .T. ) ;
#236 = LINE ( 'NONE', #8, #288 ) ;
#237 = DIRECTION ( 'NONE',  ( -0.000000000000000000, -0.000000000000000000, 1.000000000000000000 ) ) ;
#238 = DIRECTION ( 'NONE',  ( 1.000000000000000000, 0.000000000000000000, 0.000000000000000000 ) ) ;
#239 = EDGE_CURVE ( 'NONE', #258, #312, #35, .T. ) ;
#240 = DIRECTION ( 'NONE',  ( 1.000000000000000000, 0.000000000000000000, 0.000000000000000000 ) ) ;
#241 = DIRECTION ( 'NONE',  ( 0.000000000000000000, 0.000000000000000000, -1.000000000000000000 ) ) ;
#242 = CC_DESIGN_DATE_AND_TIME_ASSIGNMENT ( #328, #92, ( #49 ) ) ;
#243 = DIRECTION ( 'NONE',  ( 0.000000000000000000, 0.000000000000000000, 1.000000000000000000 ) ) ;
#244 = VECTOR ( 'NONE', #286, 1000.000000000000000 ) ;
#245 = APPROVAL_STATUS ( 'not_yet_approved' ) ;
#246 = ORIENTED_EDGE ( 'NONE', *, *, #297, .T. ) ;
#247 = PERSON_AND_ORGANIZATION_ROLE ( 'creator' ) ;
#248 = EDGE_LOOP ( 'NONE', ( #127, #69, #148, #256 ) ) ;
#249 = EDGE_LOOP ( 'NONE', ( #280, #56 ) ) ;
#250 = CYLINDRICAL_SURFACE ( 'NONE', #257, 10.00000000000000178 ) ;
#251 = ORIENTED_EDGE ( 'NONE', *, *, #26, .F. ) ;
#252 = PERSON_AND_ORGANIZATION_ROLE ( 'design_supplier' ) ;
#253 = CARTESIAN_POINT ( 'NONE',  ( 0.000000000000000000, 0.000000000000000000, 0.000000000000000000 ) ) ;
#254 = PERSON_AND_ORGANIZATION_ROLE ( 'creator' ) ;
#255 = DIRECTION ( 'NONE',  ( 1.000000000000000000, 0.000000000000000000, 0.000000000000000000 ) ) ;
#256 = ORIENTED_EDGE ( 'NONE', *, *, #224, .F. ) ;
#257 = AXIS2_PLACEMENT_3D ( 'NONE', #194, #64, #41 ) ;
#258 = VERTEX_POINT ( 'NONE', #266 ) ;
#259 = EDGE_CURVE ( 'NONE', #155, #77, #186, .T. ) ;
#260 = CIRCLE ( 'NONE', #121, 10.00000000000000178 ) ;
#261 = CARTESIAN_POINT ( 'NONE',  ( 0.000000000000000000, 0.000000000000000000, 16.00000000000000000 ) ) ;
#262 = DIRECTION ( 'NONE',  ( 0.000000000000000000, 0.000000000000000000, -1.000000000000000000 ) ) ;
#263 = FACE_OUTER_BOUND ( 'NONE', #27, .T. ) ;
#264 = DIRECTION ( 'NONE',  ( -1.000000000000000000, 0.000000000000000000, 0.000000000000000000 ) ) ;
#265 = PRODUCT ( 'R4-001', 'R4-001', '', ( #273 ) ) ;
#266 = CARTESIAN_POINT ( 'NONE',  ( 9.000000000000001776, 0.000000000000000000, -2.000000000000000000 ) ) ;
#267 = FACE_BOUND ( 'NONE', #311, .T. ) ;
#268 = CC_DESIGN_APPROVAL ( #193, ( #211 ) ) ;
#269 = CARTESIAN_POINT ( 'NONE',  ( 5.749999999999998224, 0.000000000000000000, -2.000000000000000000 ) ) ;
#270 = CIRCLE ( 'NONE', #218, 5.749999999999998224 ) ;
#271 = DIRECTION ( 'NONE',  ( 1.000000000000000000, 0.000000000000000000, 0.000000000000000000 ) ) ;
#272 = ADVANCED_FACE ( 'NONE', ( #213, #136 ), #39, .T. ) ;
#273 = MECHANICAL_CONTEXT ( 'NONE', #215, 'mechanical' ) ;
#274 = CLOSED_SHELL ( 'NONE', ( #188, #38, #291, #105, #159, #201, #226, #272, #78 ) ) ;
#275 = DATE_AND_TIME ( #174, #309 ) ;
#276 = PRODUCT_RELATED_PRODUCT_CATEGORY ( 'detail', '', ( #265 ) ) ;
#277 = DATE_AND_TIME ( #22, #301 ) ;
#278 = ORIENTED_EDGE ( 'NONE', *, *, #239, .T. ) ;
#279 = VERTEX_POINT ( 'NONE', #292 ) ;
#280 = ORIENTED_EDGE ( 'NONE', *, *, #235, .F. ) ;
#281 = CARTESIAN_POINT ( 'NONE',  ( 10.00000000000000178, 1.224646799147353454E-15, 0.000000000000000000 ) ) ;
#282 = CC_DESIGN_APPROVAL ( #87, ( #49 ) ) ;
#283 = DIRECTION ( 'NONE',  ( 0.000000000000000000, 0.000000000000000000, 1.000000000000000000 ) ) ;
#284 = ORIENTED_EDGE ( 'NONE', *, *, #138, .F. ) ;
#285 = DIRECTION ( 'NONE',  ( 1.000000000000000000, 0.000000000000000000, 0.000000000000000000 ) ) ;
#286 = DIRECTION ( 'NONE',  ( -0.000000000000000000, -0.000000000000000000, 1.000000000000000000 ) ) ;
#287 = CIRCLE ( 'NONE', #205, 10.00000000000000178 ) ;
#288 = VECTOR ( 'NONE', #237, 1000.000000000000000 ) ;
#289 = DIRECTION ( 'NONE',  ( -0.000000000000000000, -0.000000000000000000, 1.000000000000000000 ) ) ;
#290 = DIRECTION ( 'NONE',  ( 0.000000000000000000, 0.000000000000000000, 1.000000000000000000 ) ) ;
#291 = ADVANCED_FACE ( 'NONE', ( #168 ), #250, .T. ) ;
#292 = CARTESIAN_POINT ( 'NONE',  ( -5.749999999999998224, 7.041719095097278907E-16, -2.000000000000000000 ) ) ;
#293 = AXIS2_PLACEMENT_3D ( 'NONE', #42, #46, #173 ) ;
#294 = CARTESIAN_POINT ( 'NONE',  ( 0.000000000000000000, 0.000000000000000000, 0.000000000000000000 ) ) ;
#295 = AXIS2_PLACEMENT_3D ( 'NONE', #183, #283, #158 ) ;
#296 = VERTEX_POINT ( 'NONE', #269 ) ;
#297 = EDGE_CURVE ( 'NONE', #51, #232, #176, .T. ) ;
#298 = COORDINATED_UNIVERSAL_TIME_OFFSET ( 1, 0, .AHEAD. ) ;
#299 = EDGE_LOOP ( 'NONE', ( #81, #223, #47, #79 ) ) ;
#300 = ORIENTED_EDGE ( 'NONE', *, *, #178, .T. ) ;
#301 = LOCAL_TIME ( 8, 8, 45.00000000000000000, #1 ) ;
#302 = APPROVAL_DATE_TIME ( #221, #87 ) ;
#303 = EDGE_CURVE ( 'NONE', #103, #77, #287, .T. ) ;
#304 = COORDINATED_UNIVERSAL_TIME_OFFSET ( 1, 0, .AHEAD. ) ;
#305 = ORIENTED_EDGE ( 'NONE', *, *, #26, .T. ) ;
#306 = AXIS2_PLACEMENT_3D ( 'NONE', #192, #262, #319 ) ;
#307 = DIRECTION ( 'NONE',  ( 1.000000000000000000, 0.000000000000000000, 0.000000000000000000 ) ) ;
#308 = APPLICATION_CONTEXT ( 'configuration controlled 3d designs of mechanical parts and assemblies' ) ;
#309 = LOCAL_TIME ( 8, 8, 45.00000000000000000, #298 ) ;
#310 = PERSON_AND_ORGANIZATION_ROLE ( 'classification_officer' ) ;
#311 = EDGE_LOOP ( 'NONE', ( #284, #21 ) ) ;
#312 = VERTEX_POINT ( 'NONE', #202 ) ;
#313 = PLANE ( 'NONE',  #295 ) ;
#314 = ORIENTED_EDGE ( 'NONE', *, *, #303, .F. ) ;
#315 = CC_DESIGN_PERSON_AND_ORGANIZATION_ASSIGNMENT ( #128, #254, ( #211 ) ) ;
#316 = CIRCLE ( 'NONE', #52, 9.000000000000001776 ) ;
#317 = DIRECTION ( 'NONE',  ( 1.000000000000000000, 0.000000000000000000, -0.000000000000000000 ) ) ;
#318 = DIRECTION ( 'NONE',  ( -0.000000000000000000, -0.000000000000000000, 1.000000000000000000 ) ) ;
#319 = DIRECTION ( 'NONE',  ( -1.000000000000000000, 0.000000000000000000, 0.000000000000000000 ) ) ;
#320 = AXIS2_PLACEMENT_3D ( 'NONE', #104, #139, #85 ) ;
#321 = EDGE_CURVE ( 'NONE', #329, #195, #14, .T. ) ;
#322 = CYLINDRICAL_SURFACE ( 'NONE', #82, 5.749999999999998224 ) ;
#323 = CARTESIAN_POINT ( 'NONE',  ( 0.000000000000000000, 0.000000000000000000, 0.000000000000000000 ) ) ;
#324 = APPLICATION_PROTOCOL_DEFINITION ( 'international standard', 'config_control_design', 1994, #215 ) ;
#325 = CALENDAR_DATE ( 2022, 1, 7 ) ;
#326 = DIRECTION ( 'NONE',  ( 0.000000000000000000, 0.000000000000000000, 1.000000000000000000 ) ) ;
#327 = ORIENTED_EDGE ( 'NONE', *, *, #259, .F. ) ;
#328 = DATE_AND_TIME ( #325, #9 ) ;
#329 = VERTEX_POINT ( 'NONE', #66 ) ;
ENDSEC;
END-ISO-10303-21;
