ISO-10303-21;
HEADER;
FILE_DESCRIPTION (( 'STEP AP203' ),
    '1' );
FILE_NAME ('R4-002.STEP',
    '2022-07-01T06:10:22',
    ( '' ),
    ( '' ),
    'SwSTEP 2.0',
    'SolidWorks 2022',
    '' );
FILE_SCHEMA (( 'CONFIG_CONTROL_DESIGN' ));
ENDSEC;

DATA;
#1 = CARTESIAN_POINT ( 'NONE',  ( 0.000000000000000000, 0.000000000000000000, -2.000000000000000000 ) ) ;
#2 = CARTESIAN_POINT ( 'NONE',  ( -7.500000000000000000, 9.184850993605147944E-16, 17.00000000000000000 ) ) ;
#3 = AXIS2_PLACEMENT_3D ( 'NONE', #182, #329, #309 ) ;
#4 = DIRECTION ( 'NONE',  ( -0.000000000000000000, -0.000000000000000000, -1.000000000000000000 ) ) ;
#5 = LINE ( 'NONE', #209, #205 ) ;
#6 = CARTESIAN_POINT ( 'NONE',  ( 0.000000000000000000, 0.000000000000000000, 17.00000000000000000 ) ) ;
#7 = ORIENTED_EDGE ( 'NONE', *, *, #277, .T. ) ;
#8 = FACE_BOUND ( 'NONE', #185, .T. ) ;
#9 = LOCAL_TIME ( 8, 10, 22.00000000000000000, #276 ) ;
#10 = VERTEX_POINT ( 'NONE', #261 ) ;
#11 = DIRECTION ( 'NONE',  ( -0.000000000000000000, -0.000000000000000000, 1.000000000000000000 ) ) ;
#12 = ORIENTED_EDGE ( 'NONE', *, *, #62, .F. ) ;
#13 = AXIS2_PLACEMENT_3D ( 'NONE', #280, #24, #144 ) ;
#14 = VERTEX_POINT ( 'NONE', #240 ) ;
#15 = DIRECTION ( 'NONE',  ( -1.000000000000000000, 0.000000000000000000, 0.000000000000000000 ) ) ;
#16 = CARTESIAN_POINT ( 'NONE',  ( 0.000000000000000000, 0.000000000000000000, 17.00000000000000000 ) ) ;
#17 = CIRCLE ( 'NONE', #228, 10.50000000000000000 ) ;
#18 = PERSON_AND_ORGANIZATION ( #74, #320 ) ;
#19 = CC_DESIGN_PERSON_AND_ORGANIZATION_ASSIGNMENT ( #148, #243, ( #226 ) ) ;
#20 = AXIS2_PLACEMENT_3D ( 'NONE', #70, #40, #112 ) ;
#21 = EDGE_CURVE ( 'NONE', #165, #114, #189, .T. ) ;
#22 = AXIS2_PLACEMENT_3D ( 'NONE', #59, #103, #283 ) ;
#23 = DIRECTION ( 'NONE',  ( -0.000000000000000000, -0.000000000000000000, -1.000000000000000000 ) ) ;
#24 = DIRECTION ( 'NONE',  ( 0.000000000000000000, 0.000000000000000000, 1.000000000000000000 ) ) ;
#25 = CARTESIAN_POINT ( 'NONE',  ( 0.000000000000000000, 0.000000000000000000, 0.000000000000000000 ) ) ;
#26 = CC_DESIGN_PERSON_AND_ORGANIZATION_ASSIGNMENT ( #95, #237, ( #324 ) ) ;
#27 = DIRECTION ( 'NONE',  ( 0.000000000000000000, 0.000000000000000000, -1.000000000000000000 ) ) ;
#28 = CC_DESIGN_APPROVAL ( #208, ( #162 ) ) ;
#29 = ADVANCED_FACE ( 'NONE', ( #241 ), #194, .F. ) ;
#30 = CARTESIAN_POINT ( 'NONE',  ( 10.50000000000000000, 0.000000000000000000, 0.000000000000000000 ) ) ;
#31 = EDGE_CURVE ( 'NONE', #14, #156, #300, .T. ) ;
#32 = EDGE_LOOP ( 'NONE', ( #292, #219 ) ) ;
#33 = DIRECTION ( 'NONE',  ( 1.000000000000000000, 0.000000000000000000, -0.000000000000000000 ) ) ;
#34 = AXIS2_PLACEMENT_3D ( 'NONE', #1, #180, #155 ) ;
#35 = ORIENTED_EDGE ( 'NONE', *, *, #183, .F. ) ;
#36 = DIRECTION ( 'NONE',  ( 0.000000000000000000, 0.000000000000000000, 1.000000000000000000 ) ) ;
#37 = CC_DESIGN_APPROVAL ( #262, ( #44 ) ) ;
#38 = ORIENTED_EDGE ( 'NONE', *, *, #319, .F. ) ;
#39 = ORIENTED_EDGE ( 'NONE', *, *, #319, .T. ) ;
#40 = DIRECTION ( 'NONE',  ( -0.000000000000000000, -0.000000000000000000, 1.000000000000000000 ) ) ;
#41 = AXIS2_PLACEMENT_3D ( 'NONE', #45, #147, #270 ) ;
#42 = ORIENTED_EDGE ( 'NONE', *, *, #212, .T. ) ;
#43 = CARTESIAN_POINT ( 'NONE',  ( 0.000000000000000000, 0.000000000000000000, -2.000000000000000000 ) ) ;
#44 = PRODUCT_DEFINITION_FORMATION_WITH_SPECIFIED_SOURCE ( 'ANY', '', #324, .NOT_KNOWN. ) ;
#45 = CARTESIAN_POINT ( 'NONE',  ( 0.000000000000000000, 0.000000000000000000, 17.00000000000000000 ) ) ;
#46 = APPROVAL_STATUS ( 'not_yet_approved' ) ;
#47 = DESIGN_CONTEXT ( 'detailed design', #75, 'design' ) ;
#48 = PRODUCT_RELATED_PRODUCT_CATEGORY ( 'detail', '', ( #324 ) ) ;
#49 = PERSON_AND_ORGANIZATION_ROLE ( 'creator' ) ;
#50 = VECTOR ( 'NONE', #143, 1000.000000000000000 ) ;
#51 = CC_DESIGN_SECURITY_CLASSIFICATION ( #226, ( #44 ) ) ;
#52 = CALENDAR_DATE ( 2022, 1, 7 ) ;
#53 = ADVANCED_FACE ( 'NONE', ( #73 ), #169, .T. ) ;
#54 = DIRECTION ( 'NONE',  ( -0.000000000000000000, -0.000000000000000000, 1.000000000000000000 ) ) ;
#55 = ORIENTED_EDGE ( 'NONE', *, *, #129, .T. ) ;
#56 = AXIS2_PLACEMENT_3D ( 'NONE', #86, #188, #15 ) ;
#57 = DIRECTION ( 'NONE',  ( -0.000000000000000000, -0.000000000000000000, -1.000000000000000000 ) ) ;
#58 = LINE ( 'NONE', #130, #247 ) ;
#59 = CARTESIAN_POINT ( 'NONE',  ( 0.000000000000000000, 0.000000000000000000, -2.000000000000000000 ) ) ;
#60 = AXIS2_PLACEMENT_3D ( 'NONE', #72, #36, #33 ) ;
#61 = FACE_BOUND ( 'NONE', #88, .T. ) ;
#62 = EDGE_CURVE ( 'NONE', #156, #68, #58, .T. ) ;
#63 = AXIS2_PLACEMENT_3D ( 'NONE', #6, #215, #193 ) ;
#64 = ORIENTED_EDGE ( 'NONE', *, *, #122, .T. ) ;
#65 = ORIENTED_EDGE ( 'NONE', *, *, #302, .T. ) ;
#66 = APPROVAL_STATUS ( 'not_yet_approved' ) ;
#67 = VECTOR ( 'NONE', #233, 1000.000000000000000 ) ;
#68 = VERTEX_POINT ( 'NONE', #78 ) ;
#69 = ORIENTED_EDGE ( 'NONE', *, *, #302, .F. ) ;
#70 = CARTESIAN_POINT ( 'NONE',  ( 0.000000000000000000, 0.000000000000000000, -2.000000000000000000 ) ) ;
#71 = VERTEX_POINT ( 'NONE', #305 ) ;
#72 = CARTESIAN_POINT ( 'NONE',  ( 0.000000000000000000, 0.000000000000000000, 0.000000000000000000 ) ) ;
#73 = FACE_OUTER_BOUND ( 'NONE', #167, .T. ) ;
#74 = PERSON ( 'UNSPECIFIED', 'UNSPECIFIED', 'UNSPECIFIED', ('UNSPECIFIED'), ('UNSPECIFIED'), ('UNSPECIFIED') ) ;
#75 = APPLICATION_CONTEXT ( 'configuration controlled 3d designs of mechanical parts and assemblies' ) ;
#76 = COORDINATED_UNIVERSAL_TIME_OFFSET ( 1, 0, .AHEAD. ) ;
#77 = CIRCLE ( 'NONE', #13, 7.500000000000000000 ) ;
#78 = CARTESIAN_POINT ( 'NONE',  ( 12.50000000000000000, 1.530808498934191521E-15, 0.000000000000000000 ) ) ;
#79 = DIRECTION ( 'NONE',  ( -1.000000000000000000, 0.000000000000000000, 0.000000000000000000 ) ) ;
#80 = DIRECTION ( 'NONE',  ( 0.000000000000000000, 0.000000000000000000, 1.000000000000000000 ) ) ;
#81 = PRODUCT_DEFINITION_SHAPE ( 'NONE', 'NONE',  #162 ) ;
#82 = DIRECTION ( 'NONE',  ( -0.000000000000000000, -0.000000000000000000, -1.000000000000000000 ) ) ;
#83 = ADVANCED_FACE ( 'NONE', ( #176 ), #304, .F. ) ;
#84 = CARTESIAN_POINT ( 'NONE',  ( 12.50000000000000000, 1.530808498934191521E-15, 17.00000000000000000 ) ) ;
#85 = ORIENTED_EDGE ( 'NONE', *, *, #293, .T. ) ;
#86 = CARTESIAN_POINT ( 'NONE',  ( 0.000000000000000000, 0.000000000000000000, -2.000000000000000000 ) ) ;
#87 = ORIENTED_EDGE ( 'NONE', *, *, #21, .F. ) ;
#88 = EDGE_LOOP ( 'NONE', ( #7, #65 ) ) ;
#89 = CIRCLE ( 'NONE', #133, 10.50000000000000000 ) ;
#90 = EDGE_CURVE ( 'NONE', #111, #93, #99, .T. ) ;
#91 = ORIENTED_EDGE ( 'NONE', *, *, #31, .F. ) ;
#92 = CARTESIAN_POINT ( 'NONE',  ( 10.50000000000000000, 0.000000000000000000, -2.000000000000000000 ) ) ;
#93 = VERTEX_POINT ( 'NONE', #207 ) ;
#94 = EDGE_CURVE ( 'NONE', #313, #111, #5, .T. ) ;
#95 = PERSON_AND_ORGANIZATION ( #74, #320 ) ;
#96 = CARTESIAN_POINT ( 'NONE',  ( 0.000000000000000000, 0.000000000000000000, -2.000999999999999446 ) ) ;
#97 = ADVANCED_FACE ( 'NONE', ( #157 ), #231, .T. ) ;
#98 = CALENDAR_DATE ( 2022, 1, 7 ) ;
#99 = CIRCLE ( 'NONE', #268, 10.50000000000000000 ) ;
#100 = APPROVAL_DATE_TIME ( #297, #208 ) ;
#101 = CIRCLE ( 'NONE', #56, 7.500000000000000000 ) ;
#102 = DIRECTION ( 'NONE',  ( 1.000000000000000000, 0.000000000000000000, 0.000000000000000000 ) ) ;
#103 = DIRECTION ( 'NONE',  ( 0.000000000000000000, 0.000000000000000000, -1.000000000000000000 ) ) ;
#104 = CC_DESIGN_PERSON_AND_ORGANIZATION_ASSIGNMENT ( #272, #170, ( #44 ) ) ;
#105 = CIRCLE ( 'NONE', #3, 12.50000000000000000 ) ;
#106 = CARTESIAN_POINT ( 'NONE',  ( 0.000000000000000000, 0.000000000000000000, -2.000000000000000000 ) ) ;
#107 = FACE_OUTER_BOUND ( 'NONE', #192, .T. ) ;
#108 = DIRECTION ( 'NONE',  ( -0.000000000000000000, -0.000000000000000000, 1.000000000000000000 ) ) ;
#109 = ORIENTED_EDGE ( 'NONE', *, *, #153, .F. ) ;
#110 = FACE_OUTER_BOUND ( 'NONE', #137, .T. ) ;
#111 = VERTEX_POINT ( 'NONE', #30 ) ;
#112 = DIRECTION ( 'NONE',  ( -1.000000000000000000, 0.000000000000000000, 0.000000000000000000 ) ) ;
#113 = AXIS2_PLACEMENT_3D ( 'NONE', #43, #140, #142 ) ;
#114 = VERTEX_POINT ( 'NONE', #2 ) ;
#115 = PLANE ( 'NONE',  #290 ) ;
#116 = ADVANCED_FACE ( 'NONE', ( #61, #211 ), #284, .T. ) ;
#117 = ORIENTED_EDGE ( 'NONE', *, *, #129, .F. ) ;
#118 = CYLINDRICAL_SURFACE ( 'NONE', #242, 10.50000000000000000 ) ;
#119 = AXIS2_PLACEMENT_3D ( 'NONE', #248, #23, #79 ) ;
#120 = ORIENTED_EDGE ( 'NONE', *, *, #254, .F. ) ;
#121 = DIRECTION ( 'NONE',  ( 0.000000000000000000, 0.000000000000000000, 1.000000000000000000 ) ) ;
#122 = EDGE_CURVE ( 'NONE', #313, #258, #17, .T. ) ;
#123 = DIRECTION ( 'NONE',  ( 0.000000000000000000, 0.000000000000000000, 1.000000000000000000 ) ) ;
#124 = PERSON_AND_ORGANIZATION ( #74, #320 ) ;
#125 = APPROVAL_ROLE ( '' ) ;
#126 = AXIS2_PLACEMENT_3D ( 'NONE', #179, #310, #102 ) ;
#127 = PERSON_AND_ORGANIZATION ( #74, #320 ) ;
#128 = COORDINATED_UNIVERSAL_TIME_OFFSET ( 1, 0, .AHEAD. ) ;
#129 = EDGE_CURVE ( 'NONE', #258, #93, #158, .T. ) ;
#130 = CARTESIAN_POINT ( 'NONE',  ( 12.50000000000000000, 1.530808498934191521E-15, 17.00000000000000000 ) ) ;
#131 = DIRECTION ( 'NONE',  ( -0.000000000000000000, -0.000000000000000000, -1.000000000000000000 ) ) ;
#132 = ORIENTED_EDGE ( 'NONE', *, *, #31, .T. ) ;
#133 = AXIS2_PLACEMENT_3D ( 'NONE', #25, #57, #134 ) ;
#134 = DIRECTION ( 'NONE',  ( 1.000000000000000000, 0.000000000000000000, 0.000000000000000000 ) ) ;
#135 = LINE ( 'NONE', #251, #145 ) ;
#136 = CARTESIAN_POINT ( 'NONE',  ( -10.50000000000000000, 1.285879139104720831E-15, -2.000000000000000000 ) ) ;
#137 = EDGE_LOOP ( 'NONE', ( #35, #109 ) ) ;
#138 = CC_DESIGN_DATE_AND_TIME_ASSIGNMENT ( #195, #244, ( #226 ) ) ;
#139 = MANIFOLD_SOLID_BREP ( 'Extrusion3', #181 ) ;
#140 = DIRECTION ( 'NONE',  ( 0.000000000000000000, 0.000000000000000000, -1.000000000000000000 ) ) ;
#141 = ORIENTED_EDGE ( 'NONE', *, *, #293, .F. ) ;
#142 = DIRECTION ( 'NONE',  ( -1.000000000000000000, 0.000000000000000000, 0.000000000000000000 ) ) ;
#143 = DIRECTION ( 'NONE',  ( -0.000000000000000000, -0.000000000000000000, 1.000000000000000000 ) ) ;
#144 = DIRECTION ( 'NONE',  ( 1.000000000000000000, 0.000000000000000000, 0.000000000000000000 ) ) ;
#145 = VECTOR ( 'NONE', #54, 1000.000000000000000 ) ;
#146 = ORIENTED_EDGE ( 'NONE', *, *, #175, .T. ) ;
#147 = DIRECTION ( 'NONE',  ( -0.000000000000000000, -0.000000000000000000, -1.000000000000000000 ) ) ;
#148 = PERSON_AND_ORGANIZATION ( #74, #320 ) ;
#149 = PERSON_AND_ORGANIZATION ( #74, #320 ) ;
#150 = AXIS2_PLACEMENT_3D ( 'NONE', #96, #222, #295 ) ;
#151 = SECURITY_CLASSIFICATION_LEVEL ( 'unclassified' ) ;
#152 = CC_DESIGN_PERSON_AND_ORGANIZATION_ASSIGNMENT ( #18, #299, ( #44 ) ) ;
#153 = EDGE_CURVE ( 'NONE', #68, #250, #252, .T. ) ;
#154 = CYLINDRICAL_SURFACE ( 'NONE', #119, 12.50000000000000000 ) ;
#155 = DIRECTION ( 'NONE',  ( 1.000000000000000000, 0.000000000000000000, 0.000000000000000000 ) ) ;
#156 = VERTEX_POINT ( 'NONE', #84 ) ;
#157 = FACE_OUTER_BOUND ( 'NONE', #163, .T. ) ;
#158 = LINE ( 'NONE', #136, #67 ) ;
#159 = CARTESIAN_POINT ( 'NONE',  ( 0.000000000000000000, 0.000000000000000000, 0.000000000000000000 ) ) ;
#160 = ORIENTED_EDGE ( 'NONE', *, *, #94, .F. ) ;
#161 = FACE_BOUND ( 'NONE', #32, .T. ) ;
#162 = PRODUCT_DEFINITION ( 'UNKNOWN', '', #44, #47 ) ;
#163 = EDGE_LOOP ( 'NONE', ( #141, #55, #314, #160 ) ) ;
#164 = APPROVAL_ROLE ( '' ) ;
#165 = VERTEX_POINT ( 'NONE', #253 ) ;
#166 = CARTESIAN_POINT ( 'NONE',  ( 0.000000000000000000, 0.000000000000000000, 17.00000000000000000 ) ) ;
#167 = EDGE_LOOP ( 'NONE', ( #12, #91, #42, #220 ) ) ;
#168 = ORIENTED_EDGE ( 'NONE', *, *, #90, .T. ) ;
#169 = CYLINDRICAL_SURFACE ( 'NONE', #41, 12.50000000000000000 ) ;
#170 = PERSON_AND_ORGANIZATION_ROLE ( 'design_supplier' ) ;
#171 = LOCAL_TIME ( 8, 10, 22.00000000000000000, #322 ) ;
#172 = CIRCLE ( 'NONE', #274, 12.50000000000000000 ) ;
#173 = LOCAL_TIME ( 8, 10, 22.00000000000000000, #225 ) ;
#174 = CALENDAR_DATE ( 2022, 1, 7 ) ;
#175 = EDGE_CURVE ( 'NONE', #156, #14, #105, .T. ) ;
#176 = FACE_OUTER_BOUND ( 'NONE', #184, .T. ) ;
#177 = APPLICATION_CONTEXT ( 'configuration controlled 3d designs of mechanical parts and assemblies' ) ;
#178 = CARTESIAN_POINT ( 'NONE',  ( -12.50000000000000000, 0.000000000000000000, 0.000000000000000000 ) ) ;
#179 = CARTESIAN_POINT ( 'NONE',  ( 0.000000000000000000, 0.000000000000000000, -2.000999999999999446 ) ) ;
#180 = DIRECTION ( 'NONE',  ( -0.000000000000000000, -0.000000000000000000, 1.000000000000000000 ) ) ;
#181 = CLOSED_SHELL ( 'NONE', ( #29, #97, #234, #269, #53, #327, #303, #116, #83 ) ) ;
#182 = CARTESIAN_POINT ( 'NONE',  ( 0.000000000000000000, 0.000000000000000000, 17.00000000000000000 ) ) ;
#183 = EDGE_CURVE ( 'NONE', #250, #68, #172, .T. ) ;
#184 = EDGE_LOOP ( 'NONE', ( #87, #236, #206, #39 ) ) ;
#185 = EDGE_LOOP ( 'NONE', ( #38, #120 ) ) ;
#186 = PERSON_AND_ORGANIZATION ( #74, #320 ) ;
#187 = EDGE_LOOP ( 'NONE', ( #69, #256, #287, #213 ) ) ;
#188 = DIRECTION ( 'NONE',  ( -0.000000000000000000, -0.000000000000000000, 1.000000000000000000 ) ) ;
#189 = LINE ( 'NONE', #264, #50 ) ;
#190 =( NAMED_UNIT ( * ) SI_UNIT ( $, .STERADIAN. ) SOLID_ANGLE_UNIT ( ) );
#191 = CC_DESIGN_APPROVAL ( #224, ( #226 ) ) ;
#192 = EDGE_LOOP ( 'NONE', ( #278, #238, #286, #266 ) ) ;
#193 = DIRECTION ( 'NONE',  ( 1.000000000000000000, 0.000000000000000000, 0.000000000000000000 ) ) ;
#194 = CYLINDRICAL_SURFACE ( 'NONE', #150, 7.500000000000000000 ) ;
#195 = DATE_AND_TIME ( #174, #171 ) ;
#196 = CC_DESIGN_PERSON_AND_ORGANIZATION_ASSIGNMENT ( #124, #49, ( #162 ) ) ;
#197 = ADVANCED_BREP_SHAPE_REPRESENTATION ( 'R4-002', ( #139, #281 ), #285 ) ;
#198 = CALENDAR_DATE ( 2022, 1, 7 ) ;
#199 = EDGE_CURVE ( 'NONE', #71, #10, #135, .T. ) ;
#200 = DATE_AND_TIME ( #198, #201 ) ;
#201 = LOCAL_TIME ( 8, 10, 22.00000000000000000, #128 ) ;
#202 = UNCERTAINTY_MEASURE_WITH_UNIT (LENGTH_MEASURE( 1.000000000000000082E-05 ), #294, 'distance_accuracy_value', 'NONE');
#203 = CARTESIAN_POINT ( 'NONE',  ( 0.000000000000000000, 0.000000000000000000, 0.000000000000000000 ) ) ;
#204 = CARTESIAN_POINT ( 'NONE',  ( 0.000000000000000000, 0.000000000000000000, 0.000000000000000000 ) ) ;
#205 = VECTOR ( 'NONE', #108, 1000.000000000000000 ) ;
#206 = ORIENTED_EDGE ( 'NONE', *, *, #199, .T. ) ;
#207 = CARTESIAN_POINT ( 'NONE',  ( -10.50000000000000000, 1.285879139104720831E-15, 0.000000000000000000 ) ) ;
#208 = APPROVAL ( #66, 'UNSPECIFIED' ) ;
#209 = CARTESIAN_POINT ( 'NONE',  ( 10.50000000000000000, 0.000000000000000000, -2.000000000000000000 ) ) ;
#210 = EDGE_CURVE ( 'NONE', #93, #111, #89, .T. ) ;
#211 = FACE_OUTER_BOUND ( 'NONE', #217, .T. ) ;
#212 = EDGE_CURVE ( 'NONE', #14, #250, #249, .T. ) ;
#213 = ORIENTED_EDGE ( 'NONE', *, *, #199, .F. ) ;
#214 = AXIS2_PLACEMENT_3D ( 'NONE', #16, #123, #321 ) ;
#215 = DIRECTION ( 'NONE',  ( 0.000000000000000000, 0.000000000000000000, 1.000000000000000000 ) ) ;
#216 = APPLICATION_PROTOCOL_DEFINITION ( 'international standard', 'config_control_design', 1994, #75 ) ;
#217 = EDGE_LOOP ( 'NONE', ( #64, #85 ) ) ;
#218 = DIRECTION ( 'NONE',  ( 1.000000000000000000, 0.000000000000000000, -0.000000000000000000 ) ) ;
#219 = ORIENTED_EDGE ( 'NONE', *, *, #210, .F. ) ;
#220 = ORIENTED_EDGE ( 'NONE', *, *, #183, .T. ) ;
#221 = DIRECTION ( 'NONE',  ( 1.000000000000000000, 0.000000000000000000, 0.000000000000000000 ) ) ;
#222 = DIRECTION ( 'NONE',  ( -0.000000000000000000, -0.000000000000000000, 1.000000000000000000 ) ) ;
#223 = DATE_AND_TIME ( #52, #229 ) ;
#224 = APPROVAL ( #273, 'UNSPECIFIED' ) ;
#225 = COORDINATED_UNIVERSAL_TIME_OFFSET ( 1, 0, .AHEAD. ) ;
#226 = SECURITY_CLASSIFICATION ( '', '', #151 ) ;
#227 = APPROVAL_ROLE ( '' ) ;
#228 = AXIS2_PLACEMENT_3D ( 'NONE', #106, #27, #307 ) ;
#229 = LOCAL_TIME ( 8, 10, 22.00000000000000000, #76 ) ;
#230 = DIRECTION ( 'NONE',  ( 1.000000000000000000, 0.000000000000000000, 0.000000000000000000 ) ) ;
#231 = CYLINDRICAL_SURFACE ( 'NONE', #34, 10.50000000000000000 ) ;
#232 = CARTESIAN_POINT ( 'NONE',  ( -12.50000000000000000, 0.000000000000000000, 17.00000000000000000 ) ) ;
#233 = DIRECTION ( 'NONE',  ( -0.000000000000000000, -0.000000000000000000, 1.000000000000000000 ) ) ;
#234 = ADVANCED_FACE ( 'NONE', ( #107 ), #154, .T. ) ;
#235 = FACE_OUTER_BOUND ( 'NONE', #317, .T. ) ;
#236 = ORIENTED_EDGE ( 'NONE', *, *, #277, .F. ) ;
#237 = PERSON_AND_ORGANIZATION_ROLE ( 'design_owner' ) ;
#238 = ORIENTED_EDGE ( 'NONE', *, *, #62, .T. ) ;
#239 = CARTESIAN_POINT ( 'NONE',  ( 0.000000000000000000, 0.000000000000000000, -2.000000000000000000 ) ) ;
#240 = CARTESIAN_POINT ( 'NONE',  ( -12.50000000000000000, 0.000000000000000000, 17.00000000000000000 ) ) ;
#241 = FACE_OUTER_BOUND ( 'NONE', #187, .T. ) ;
#242 = AXIS2_PLACEMENT_3D ( 'NONE', #239, #11, #263 ) ;
#243 = PERSON_AND_ORGANIZATION_ROLE ( 'classification_officer' ) ;
#244 = DATE_TIME_ROLE ( 'classification_date' ) ;
#245 = AXIS2_PLACEMENT_3D ( 'NONE', #204, #80, #255 ) ;
#246 = APPROVAL_DATE_TIME ( #223, #224 ) ;
#247 = VECTOR ( 'NONE', #82, 1000.000000000000000 ) ;
#248 = CARTESIAN_POINT ( 'NONE',  ( 0.000000000000000000, 0.000000000000000000, 17.00000000000000000 ) ) ;
#249 = LINE ( 'NONE', #232, #316 ) ;
#250 = VERTEX_POINT ( 'NONE', #178 ) ;
#251 = CARTESIAN_POINT ( 'NONE',  ( 7.500000000000000000, 0.000000000000000000, -2.000999999999999446 ) ) ;
#252 = CIRCLE ( 'NONE', #245, 12.50000000000000000 ) ;
#253 = CARTESIAN_POINT ( 'NONE',  ( -7.500000000000000000, 9.184850993605147944E-16, -2.000000000000000000 ) ) ;
#254 = EDGE_CURVE ( 'NONE', #114, #10, #77, .T. ) ;
#255 = DIRECTION ( 'NONE',  ( 1.000000000000000000, 0.000000000000000000, 0.000000000000000000 ) ) ;
#256 = ORIENTED_EDGE ( 'NONE', *, *, #21, .T. ) ;
#257 = DIRECTION ( 'NONE',  ( 0.000000000000000000, 0.000000000000000000, 1.000000000000000000 ) ) ;
#258 = VERTEX_POINT ( 'NONE', #259 ) ;
#259 = CARTESIAN_POINT ( 'NONE',  ( -10.50000000000000000, 1.285879139104720831E-15, -2.000000000000000000 ) ) ;
#260 = CIRCLE ( 'NONE', #113, 10.50000000000000000 ) ;
#261 = CARTESIAN_POINT ( 'NONE',  ( 7.500000000000000000, 0.000000000000000000, 17.00000000000000000 ) ) ;
#262 = APPROVAL ( #46, 'UNSPECIFIED' ) ;
#263 = DIRECTION ( 'NONE',  ( 1.000000000000000000, 0.000000000000000000, 0.000000000000000000 ) ) ;
#264 = CARTESIAN_POINT ( 'NONE',  ( -7.500000000000000000, 9.184850993605147944E-16, -2.000999999999999446 ) ) ;
#265 = CARTESIAN_POINT ( 'NONE',  ( 0.000000000000000000, 0.000000000000000000, 0.000000000000000000 ) ) ;
#266 = ORIENTED_EDGE ( 'NONE', *, *, #212, .F. ) ;
#267 = FACE_OUTER_BOUND ( 'NONE', #306, .T. ) ;
#268 = AXIS2_PLACEMENT_3D ( 'NONE', #159, #131, #230 ) ;
#269 = ADVANCED_FACE ( 'NONE', ( #110, #161 ), #318, .F. ) ;
#270 = DIRECTION ( 'NONE',  ( -1.000000000000000000, 0.000000000000000000, 0.000000000000000000 ) ) ;
#271 = APPROVAL_PERSON_ORGANIZATION ( #127, #224, #125 ) ;
#272 = PERSON_AND_ORGANIZATION ( #74, #320 ) ;
#273 = APPROVAL_STATUS ( 'not_yet_approved' ) ;
#274 = AXIS2_PLACEMENT_3D ( 'NONE', #203, #282, #279 ) ;
#275 = APPROVAL_DATE_TIME ( #323, #262 ) ;
#276 = COORDINATED_UNIVERSAL_TIME_OFFSET ( 1, 0, .AHEAD. ) ;
#277 = EDGE_CURVE ( 'NONE', #71, #165, #326, .T. ) ;
#278 = ORIENTED_EDGE ( 'NONE', *, *, #175, .F. ) ;
#279 = DIRECTION ( 'NONE',  ( 1.000000000000000000, 0.000000000000000000, 0.000000000000000000 ) ) ;
#280 = CARTESIAN_POINT ( 'NONE',  ( 0.000000000000000000, 0.000000000000000000, 17.00000000000000000 ) ) ;
#281 = AXIS2_PLACEMENT_3D ( 'NONE', #265, #121, #221 ) ;
#282 = DIRECTION ( 'NONE',  ( 0.000000000000000000, 0.000000000000000000, 1.000000000000000000 ) ) ;
#283 = DIRECTION ( 'NONE',  ( -1.000000000000000000, 0.000000000000000000, -0.000000000000000000 ) ) ;
#284 = PLANE ( 'NONE',  #22 ) ;
#285 =( GEOMETRIC_REPRESENTATION_CONTEXT ( 3 ) GLOBAL_UNCERTAINTY_ASSIGNED_CONTEXT ( ( #202 ) ) GLOBAL_UNIT_ASSIGNED_CONTEXT ( ( #294, #315, #190 ) ) REPRESENTATION_CONTEXT ( 'NONE', 'WORKASPACE' ) );
#286 = ORIENTED_EDGE ( 'NONE', *, *, #153, .T. ) ;
#287 = ORIENTED_EDGE ( 'NONE', *, *, #254, .T. ) ;
#288 = APPLICATION_PROTOCOL_DEFINITION ( 'international standard', 'config_control_design', 1994, #177 ) ;
#289 = ORIENTED_EDGE ( 'NONE', *, *, #94, .T. ) ;
#290 = AXIS2_PLACEMENT_3D ( 'NONE', #166, #257, #218 ) ;
#291 = MECHANICAL_CONTEXT ( 'NONE', #177, 'mechanical' ) ;
#292 = ORIENTED_EDGE ( 'NONE', *, *, #90, .F. ) ;
#293 = EDGE_CURVE ( 'NONE', #258, #313, #260, .T. ) ;
#294 =( LENGTH_UNIT ( ) NAMED_UNIT ( * ) SI_UNIT ( .MILLI., .METRE. ) );
#295 = DIRECTION ( 'NONE',  ( 1.000000000000000000, 0.000000000000000000, 0.000000000000000000 ) ) ;
#296 = CALENDAR_DATE ( 2022, 1, 7 ) ;
#297 = DATE_AND_TIME ( #98, #173 ) ;
#298 = CC_DESIGN_DATE_AND_TIME_ASSIGNMENT ( #200, #325, ( #162 ) ) ;
#299 = PERSON_AND_ORGANIZATION_ROLE ( 'creator' ) ;
#300 = CIRCLE ( 'NONE', #214, 12.50000000000000000 ) ;
#301 = SHAPE_DEFINITION_REPRESENTATION ( #81, #197 ) ;
#302 = EDGE_CURVE ( 'NONE', #165, #71, #101, .T. ) ;
#303 = ADVANCED_FACE ( 'NONE', ( #235 ), #118, .T. ) ;
#304 = CYLINDRICAL_SURFACE ( 'NONE', #126, 7.500000000000000000 ) ;
#305 = CARTESIAN_POINT ( 'NONE',  ( 7.500000000000000000, 0.000000000000000000, -2.000000000000000000 ) ) ;
#306 = EDGE_LOOP ( 'NONE', ( #132, #146 ) ) ;
#307 = DIRECTION ( 'NONE',  ( -1.000000000000000000, 0.000000000000000000, 0.000000000000000000 ) ) ;
#308 = APPROVAL_PERSON_ORGANIZATION ( #149, #262, #227 ) ;
#309 = DIRECTION ( 'NONE',  ( 1.000000000000000000, 0.000000000000000000, 0.000000000000000000 ) ) ;
#310 = DIRECTION ( 'NONE',  ( -0.000000000000000000, -0.000000000000000000, 1.000000000000000000 ) ) ;
#311 = ORIENTED_EDGE ( 'NONE', *, *, #122, .F. ) ;
#312 = CIRCLE ( 'NONE', #63, 7.500000000000000000 ) ;
#313 = VERTEX_POINT ( 'NONE', #92 ) ;
#314 = ORIENTED_EDGE ( 'NONE', *, *, #210, .T. ) ;
#315 =( NAMED_UNIT ( * ) PLANE_ANGLE_UNIT ( ) SI_UNIT ( $, .RADIAN. ) );
#316 = VECTOR ( 'NONE', #4, 1000.000000000000000 ) ;
#317 = EDGE_LOOP ( 'NONE', ( #117, #311, #289, #168 ) ) ;
#318 = PLANE ( 'NONE',  #60 ) ;
#319 = EDGE_CURVE ( 'NONE', #10, #114, #312, .T. ) ;
#320 = ORGANIZATION ( 'UNSPECIFIED', 'UNSPECIFIED', '' ) ;
#321 = DIRECTION ( 'NONE',  ( 1.000000000000000000, 0.000000000000000000, 0.000000000000000000 ) ) ;
#322 = COORDINATED_UNIVERSAL_TIME_OFFSET ( 1, 0, .AHEAD. ) ;
#323 = DATE_AND_TIME ( #296, #9 ) ;
#324 = PRODUCT ( 'R4-002', 'R4-002', '', ( #291 ) ) ;
#325 = DATE_TIME_ROLE ( 'creation_date' ) ;
#326 = CIRCLE ( 'NONE', #20, 7.500000000000000000 ) ;
#327 = ADVANCED_FACE ( 'NONE', ( #8, #267 ), #115, .T. ) ;
#328 = APPROVAL_PERSON_ORGANIZATION ( #186, #208, #164 ) ;
#329 = DIRECTION ( 'NONE',  ( 0.000000000000000000, 0.000000000000000000, 1.000000000000000000 ) ) ;
ENDSEC;
END-ISO-10303-21;
