ISO-10303-21;
HEADER;
FILE_DESCRIPTION (( 'STEP AP203' ),
    '1' );
FILE_NAME ('R4-003.STEP',
    '2022-07-01T06:10:52',
    ( '' ),
    ( '' ),
    'SwSTEP 2.0',
    'SolidWorks 2022',
    '' );
FILE_SCHEMA (( 'CONFIG_CONTROL_DESIGN' ));
ENDSEC;

DATA;
#1 = DIRECTION ( 'NONE',  ( -0.000000000000000000, -0.000000000000000000, 1.000000000000000000 ) ) ;
#2 = CC_DESIGN_DATE_AND_TIME_ASSIGNMENT ( #150, #317, ( #105 ) ) ;
#3 =( NAMED_UNIT ( * ) PLANE_ANGLE_UNIT ( ) SI_UNIT ( $, .RADIAN. ) );
#4 = DIRECTION ( 'NONE',  ( 1.000000000000000000, 3.885780586188044933E-16, 0.000000000000000000 ) ) ;
#5 = APPLICATION_PROTOCOL_DEFINITION ( 'international standard', 'config_control_design', 1994, #162 ) ;
#6 = FACE_OUTER_BOUND ( 'NONE', #172, .T. ) ;
#7 = VERTEX_POINT ( 'NONE', #47 ) ;
#8 = PERSON_AND_ORGANIZATION_ROLE ( 'design_supplier' ) ;
#9 = VECTOR ( 'NONE', #301, 1000.000000000000000 ) ;
#10 = VERTEX_POINT ( 'NONE', #173 ) ;
#11 = COORDINATED_UNIVERSAL_TIME_OFFSET ( 1, 0, .AHEAD. ) ;
#12 = ORIENTED_EDGE ( 'NONE', *, *, #269, .F. ) ;
#13 = CC_DESIGN_PERSON_AND_ORGANIZATION_ASSIGNMENT ( #217, #146, ( #18 ) ) ;
#14 = CALENDAR_DATE ( 2022, 1, 7 ) ;
#15 = ORIENTED_EDGE ( 'NONE', *, *, #225, .F. ) ;
#16 = CALENDAR_DATE ( 2022, 1, 7 ) ;
#17 = VERTEX_POINT ( 'NONE', #222 ) ;
#18 = PRODUCT_DEFINITION_FORMATION_WITH_SPECIFIED_SOURCE ( 'ANY', '', #196, .NOT_KNOWN. ) ;
#19 = DATE_AND_TIME ( #62, #81 ) ;
#20 = EDGE_LOOP ( 'NONE', ( #30, #320, #199, #219 ) ) ;
#21 = CARTESIAN_POINT ( 'NONE',  ( 0.000000000000000000, 0.000000000000000000, -2.000000000000001776 ) ) ;
#22 = DIRECTION ( 'NONE',  ( -1.000000000000000000, -3.885780586188044440E-16, 0.000000000000000000 ) ) ;
#23 = CIRCLE ( 'NONE', #190, 9.350000000000006750 ) ;
#24 = DIRECTION ( 'NONE',  ( 0.000000000000000000, 0.000000000000000000, 1.000000000000000000 ) ) ;
#25 = DIRECTION ( 'NONE',  ( 1.000000000000000000, 3.885780586188044440E-16, 0.000000000000000000 ) ) ;
#26 = DIRECTION ( 'NONE',  ( 1.000000000000000000, 3.885780586188044440E-16, 0.000000000000000000 ) ) ;
#27 = AXIS2_PLACEMENT_3D ( 'NONE', #227, #277, #54 ) ;
#28 = EDGE_CURVE ( 'NONE', #64, #10, #268, .T. ) ;
#29 = CARTESIAN_POINT ( 'NONE',  ( 0.000000000000000000, 0.000000000000000000, -2.000999999999975021 ) ) ;
#30 = ORIENTED_EDGE ( 'NONE', *, *, #88, .F. ) ;
#31 = MECHANICAL_CONTEXT ( 'NONE', #162, 'mechanical' ) ;
#32 = CIRCLE ( 'NONE', #139, 13.00000000000001243 ) ;
#33 = AXIS2_PLACEMENT_3D ( 'NONE', #84, #310, #285 ) ;
#34 = CC_DESIGN_SECURITY_CLASSIFICATION ( #105, ( #18 ) ) ;
#35 = VERTEX_POINT ( 'NONE', #244 ) ;
#36 = ADVANCED_FACE ( 'NONE', ( #123 ), #221, .T. ) ;
#37 = CARTESIAN_POINT ( 'NONE',  ( 0.000000000000000000, 0.000000000000000000, 18.00000000000001421 ) ) ;
#38 = EDGE_CURVE ( 'NONE', #177, #35, #32, .T. ) ;
#39 = APPROVAL_ROLE ( '' ) ;
#40 = AXIS2_PLACEMENT_3D ( 'NONE', #21, #127, #4 ) ;
#41 = EDGE_LOOP ( 'NONE', ( #267, #42 ) ) ;
#42 = ORIENTED_EDGE ( 'NONE', *, *, #38, .F. ) ;
#43 = PRODUCT_DEFINITION_SHAPE ( 'NONE', 'NONE',  #137 ) ;
#44 = PERSON_AND_ORGANIZATION ( #207, #239 ) ;
#45 = DIRECTION ( 'NONE',  ( 0.000000000000000000, 0.000000000000000000, -1.000000000000000000 ) ) ;
#46 = CALENDAR_DATE ( 2022, 1, 7 ) ;
#47 = CARTESIAN_POINT ( 'NONE',  ( -13.00000000000000178, -3.459473923152898628E-15, -2.000000000000001776 ) ) ;
#48 = AXIS2_PLACEMENT_3D ( 'NONE', #49, #275, #106 ) ;
#49 = CARTESIAN_POINT ( 'NONE',  ( 0.000000000000000000, 0.000000000000000000, 18.00000000000001421 ) ) ;
#50 = PLANE ( 'NONE',  #298 ) ;
#51 = ADVANCED_FACE ( 'NONE', ( #179 ), #102, .T. ) ;
#52 = CARTESIAN_POINT ( 'NONE',  ( 0.000000000000000000, 0.000000000000000000, 0.000000000000000000 ) ) ;
#53 = CIRCLE ( 'NONE', #27, 9.350000000000006750 ) ;
#54 = DIRECTION ( 'NONE',  ( 1.000000000000000000, 3.885780586188044440E-16, 0.000000000000000000 ) ) ;
#55 = CARTESIAN_POINT ( 'NONE',  ( 9.350000000000006750, 3.633204848085824147E-15, -2.000999999999975021 ) ) ;
#56 = CARTESIAN_POINT ( 'NONE',  ( 0.000000000000000000, 0.000000000000000000, -2.000000000000001776 ) ) ;
#57 = AXIS2_PLACEMENT_3D ( 'NONE', #304, #307, #82 ) ;
#58 = CARTESIAN_POINT ( 'NONE',  ( 0.000000000000000000, 0.000000000000000000, -2.000000000000001776 ) ) ;
#59 = EDGE_CURVE ( 'NONE', #147, #64, #99, .T. ) ;
#60 = CC_DESIGN_PERSON_AND_ORGANIZATION_ASSIGNMENT ( #198, #194, ( #105 ) ) ;
#61 = ORIENTED_EDGE ( 'NONE', *, *, #205, .F. ) ;
#62 = CALENDAR_DATE ( 2022, 1, 7 ) ;
#63 = VECTOR ( 'NONE', #229, 1000.000000000000000 ) ;
#64 = VERTEX_POINT ( 'NONE', #226 ) ;
#65 = APPROVAL_PERSON_ORGANIZATION ( #243, #273, #121 ) ;
#66 = DATE_AND_TIME ( #14, #158 ) ;
#67 = VERTEX_POINT ( 'NONE', #103 ) ;
#68 = EDGE_LOOP ( 'NONE', ( #141, #15 ) ) ;
#69 = ADVANCED_FACE ( 'NONE', ( #130, #254 ), #50, .F. ) ;
#70 = ORIENTED_EDGE ( 'NONE', *, *, #160, .F. ) ;
#71 = VECTOR ( 'NONE', #133, 1000.000000000000000 ) ;
#72 = LINE ( 'NONE', #178, #71 ) ;
#73 = APPROVAL ( #166, 'UNSPECIFIED' ) ;
#74 = DIRECTION ( 'NONE',  ( -0.000000000000000000, -0.000000000000000000, -1.000000000000000000 ) ) ;
#75 = APPLICATION_CONTEXT ( 'configuration controlled 3d designs of mechanical parts and assemblies' ) ;
#76 = CARTESIAN_POINT ( 'NONE',  ( 0.000000000000000000, 0.000000000000000000, 0.000000000000000000 ) ) ;
#77 = DIRECTION ( 'NONE',  ( 0.000000000000000000, 0.000000000000000000, 1.000000000000000000 ) ) ;
#78 = MANIFOLD_SOLID_BREP ( 'Extrusion3', #109 ) ;
#79 = CARTESIAN_POINT ( 'NONE',  ( 0.000000000000000000, 0.000000000000000000, 0.000000000000000000 ) ) ;
#80 = CARTESIAN_POINT ( 'NONE',  ( 0.000000000000000000, 0.000000000000000000, -2.000000000000001776 ) ) ;
#81 = LOCAL_TIME ( 8, 10, 52.00000000000000000, #11 ) ;
#82 = DIRECTION ( 'NONE',  ( 1.000000000000000000, 0.000000000000000000, 0.000000000000000000 ) ) ;
#83 = ADVANCED_FACE ( 'NONE', ( #302, #155 ), #204, .T. ) ;
#84 = CARTESIAN_POINT ( 'NONE',  ( 0.000000000000000000, 0.000000000000000000, -2.000000000000001776 ) ) ;
#85 = DIRECTION ( 'NONE',  ( -1.000000000000000000, -3.885780586188044440E-16, 0.000000000000000000 ) ) ;
#86 = VERTEX_POINT ( 'NONE', #209 ) ;
#87 = CIRCLE ( 'NONE', #197, 13.00000000000001243 ) ;
#88 = EDGE_CURVE ( 'NONE', #17, #125, #72, .T. ) ;
#89 = APPROVAL_ROLE ( '' ) ;
#90 = ORIENTED_EDGE ( 'NONE', *, *, #132, .T. ) ;
#91 = COORDINATED_UNIVERSAL_TIME_OFFSET ( 1, 0, .AHEAD. ) ;
#92 = ORIENTED_EDGE ( 'NONE', *, *, #28, .T. ) ;
#93 = CIRCLE ( 'NONE', #113, 13.00000000000001243 ) ;
#94 = ORIENTED_EDGE ( 'NONE', *, *, #305, .T. ) ;
#95 = APPROVAL_STATUS ( 'not_yet_approved' ) ;
#96 = ORIENTED_EDGE ( 'NONE', *, *, #205, .T. ) ;
#97 = ORIENTED_EDGE ( 'NONE', *, *, #59, .F. ) ;
#98 = DIRECTION ( 'NONE',  ( 0.000000000000000000, 0.000000000000000000, 1.000000000000000000 ) ) ;
#99 = CIRCLE ( 'NONE', #286, 15.00000000000001421 ) ;
#100 = CC_DESIGN_PERSON_AND_ORGANIZATION_ASSIGNMENT ( #152, #265, ( #137 ) ) ;
#101 = CARTESIAN_POINT ( 'NONE',  ( -15.00000000000000000, -5.828670879282066315E-15, 18.00000000000001421 ) ) ;
#102 = CYLINDRICAL_SURFACE ( 'NONE', #48, 15.00000000000001421 ) ;
#103 = CARTESIAN_POINT ( 'NONE',  ( 9.350000000000006750, 3.633204848085824147E-15, 18.00000000000001421 ) ) ;
#104 = CC_DESIGN_APPROVAL ( #73, ( #18 ) ) ;
#105 = SECURITY_CLASSIFICATION ( '', '', #289 ) ;
#106 = DIRECTION ( 'NONE',  ( -1.000000000000000000, -3.885780586188044440E-16, 0.000000000000000000 ) ) ;
#107 = DIRECTION ( 'NONE',  ( 0.000000000000000000, 0.000000000000000000, 1.000000000000000000 ) ) ;
#108 = EDGE_CURVE ( 'NONE', #241, #17, #280, .T. ) ;
#109 = CLOSED_SHELL ( 'NONE', ( #260, #316, #36, #69, #51, #83, #245, #250, #325 ) ) ;
#110 = DIRECTION ( 'NONE',  ( 0.000000000000000000, 0.000000000000000000, 1.000000000000000000 ) ) ;
#111 = CARTESIAN_POINT ( 'NONE',  ( 13.00000000000001243, 5.051514762044463048E-15, -2.000000000000001776 ) ) ;
#112 = ORIENTED_EDGE ( 'NONE', *, *, #149, .F. ) ;
#113 = AXIS2_PLACEMENT_3D ( 'NONE', #80, #210, #187 ) ;
#114 = COORDINATED_UNIVERSAL_TIME_OFFSET ( 1, 0, .AHEAD. ) ;
#115 = ORIENTED_EDGE ( 'NONE', *, *, #292, .F. ) ;
#116 = CALENDAR_DATE ( 2022, 1, 7 ) ;
#117 = ORIENTED_EDGE ( 'NONE', *, *, #160, .T. ) ;
#118 = APPROVAL_DATE_TIME ( #66, #273 ) ;
#119 = ORIENTED_EDGE ( 'NONE', *, *, #305, .F. ) ;
#120 = EDGE_CURVE ( 'NONE', #86, #7, #87, .T. ) ;
#121 = APPROVAL_ROLE ( '' ) ;
#122 = CC_DESIGN_APPROVAL ( #184, ( #137 ) ) ;
#123 = FACE_OUTER_BOUND ( 'NONE', #135, .T. ) ;
#124 = APPROVAL_STATUS ( 'not_yet_approved' ) ;
#125 = VERTEX_POINT ( 'NONE', #208 ) ;
#126 = CC_DESIGN_DATE_AND_TIME_ASSIGNMENT ( #143, #168, ( #137 ) ) ;
#127 = DIRECTION ( 'NONE',  ( 0.000000000000000000, 0.000000000000000000, 1.000000000000000000 ) ) ;
#128 = CARTESIAN_POINT ( 'NONE',  ( 0.000000000000000000, 0.000000000000000000, -2.000000000000001776 ) ) ;
#129 = LOCAL_TIME ( 8, 10, 52.00000000000000000, #91 ) ;
#130 = FACE_OUTER_BOUND ( 'NONE', #175, .T. ) ;
#131 = CARTESIAN_POINT ( 'NONE',  ( -13.00000000000001243, -3.459473923152901783E-15, -2.000000000000001776 ) ) ;
#132 = EDGE_CURVE ( 'NONE', #10, #315, #145, .T. ) ;
#133 = DIRECTION ( 'NONE',  ( 0.000000000000000000, 0.000000000000000000, 1.000000000000000000 ) ) ;
#134 = AXIS2_PLACEMENT_3D ( 'NONE', #253, #74, #156 ) ;
#135 = EDGE_LOOP ( 'NONE', ( #12, #92, #90, #70 ) ) ;
#136 = DIRECTION ( 'NONE',  ( 1.000000000000000000, 3.885780586188044440E-16, 0.000000000000000000 ) ) ;
#137 = PRODUCT_DEFINITION ( 'UNKNOWN', '', #18, #297 ) ;
#138 = DIRECTION ( 'NONE',  ( 0.000000000000000000, 0.000000000000000000, -1.000000000000000000 ) ) ;
#139 = AXIS2_PLACEMENT_3D ( 'NONE', #153, #248, #215 ) ;
#140 = CARTESIAN_POINT ( 'NONE',  ( 0.000000000000000000, 0.000000000000000000, -2.000999999999975021 ) ) ;
#141 = ORIENTED_EDGE ( 'NONE', *, *, #233, .F. ) ;
#142 = FACE_OUTER_BOUND ( 'NONE', #318, .T. ) ;
#143 = DATE_AND_TIME ( #16, #129 ) ;
#144 = ORIENTED_EDGE ( 'NONE', *, *, #282, .F. ) ;
#145 = CIRCLE ( 'NONE', #271, 15.00000000000001421 ) ;
#146 = PERSON_AND_ORGANIZATION_ROLE ( 'creator' ) ;
#147 = VERTEX_POINT ( 'NONE', #101 ) ;
#148 = ORIENTED_EDGE ( 'NONE', *, *, #108, .T. ) ;
#149 = EDGE_CURVE ( 'NONE', #315, #10, #211, .T. ) ;
#150 = DATE_AND_TIME ( #46, #202 ) ;
#151 = CARTESIAN_POINT ( 'NONE',  ( 15.00000000000001421, 7.665641078003102215E-15, 18.00000000000001421 ) ) ;
#152 = PERSON_AND_ORGANIZATION ( #207, #239 ) ;
#153 = CARTESIAN_POINT ( 'NONE',  ( 0.000000000000000000, 0.000000000000000000, 0.000000000000000000 ) ) ;
#154 = CYLINDRICAL_SURFACE ( 'NONE', #40, 13.00000000000001243 ) ;
#155 = FACE_OUTER_BOUND ( 'NONE', #242, .T. ) ;
#156 = DIRECTION ( 'NONE',  ( 1.000000000000000000, 3.885780586188044933E-16, 0.000000000000000000 ) ) ;
#157 = AXIS2_PLACEMENT_3D ( 'NONE', #37, #319, #270 ) ;
#158 = LOCAL_TIME ( 8, 10, 52.00000000000000000, #171 ) ;
#159 = CARTESIAN_POINT ( 'NONE',  ( 0.000000000000000000, 0.000000000000000000, -2.000000000000001776 ) ) ;
#160 = EDGE_CURVE ( 'NONE', #147, #315, #206, .T. ) ;
#161 = FACE_OUTER_BOUND ( 'NONE', #195, .T. ) ;
#162 = APPLICATION_CONTEXT ( 'configuration controlled 3d designs of mechanical parts and assemblies' ) ;
#163 = DIRECTION ( 'NONE',  ( -1.000000000000000000, -3.885780586188044440E-16, -0.000000000000000000 ) ) ;
#164 = CIRCLE ( 'NONE', #311, 9.350000000000006750 ) ;
#165 = PLANE ( 'NONE',  #170 ) ;
#166 = APPROVAL_STATUS ( 'not_yet_approved' ) ;
#167 = ORIENTED_EDGE ( 'NONE', *, *, #38, .T. ) ;
#168 = DATE_TIME_ROLE ( 'creation_date' ) ;
#169 = ORIENTED_EDGE ( 'NONE', *, *, #225, .T. ) ;
#170 = AXIS2_PLACEMENT_3D ( 'NONE', #58, #138, #163 ) ;
#171 = COORDINATED_UNIVERSAL_TIME_OFFSET ( 1, 0, .AHEAD. ) ;
#172 = EDGE_LOOP ( 'NONE', ( #119, #201, #169, #238 ) ) ;
#173 = CARTESIAN_POINT ( 'NONE',  ( 15.00000000000000000, 7.665641078003095904E-15, 0.000000000000000000 ) ) ;
#174 = APPROVAL_DATE_TIME ( #287, #73 ) ;
#175 = EDGE_LOOP ( 'NONE', ( #112, #294 ) ) ;
#176 = CIRCLE ( 'NONE', #232, 15.00000000000001421 ) ;
#177 = VERTEX_POINT ( 'NONE', #181 ) ;
#178 = CARTESIAN_POINT ( 'NONE',  ( -9.350000000000006750, -2.488160090883048303E-15, -2.000999999999975021 ) ) ;
#179 = FACE_OUTER_BOUND ( 'NONE', #313, .T. ) ;
#180 = CC_DESIGN_PERSON_AND_ORGANIZATION_ASSIGNMENT ( #314, #8, ( #18 ) ) ;
#181 = CARTESIAN_POINT ( 'NONE',  ( -13.00000000000000178, -3.459473923152898628E-15, 0.000000000000000000 ) ) ;
#182 = VECTOR ( 'NONE', #189, 1000.000000000000000 ) ;
#183 = DIRECTION ( 'NONE',  ( 1.000000000000000000, 3.885780586188044440E-16, 0.000000000000000000 ) ) ;
#184 = APPROVAL ( #95, 'UNSPECIFIED' ) ;
#185 = APPLICATION_PROTOCOL_DEFINITION ( 'international standard', 'config_control_design', 1994, #75 ) ;
#186 = APPROVAL_PERSON_ORGANIZATION ( #191, #184, #89 ) ;
#187 = DIRECTION ( 'NONE',  ( -1.000000000000000000, -3.885780586188044933E-16, 0.000000000000000000 ) ) ;
#188 = DIRECTION ( 'NONE',  ( 0.000000000000000000, 0.000000000000000000, 1.000000000000000000 ) ) ;
#189 = DIRECTION ( 'NONE',  ( 0.000000000000000000, 0.000000000000000000, 1.000000000000000000 ) ) ;
#190 = AXIS2_PLACEMENT_3D ( 'NONE', #56, #1, #85 ) ;
#191 = PERSON_AND_ORGANIZATION ( #207, #239 ) ;
#192 = ORIENTED_EDGE ( 'NONE', *, *, #59, .T. ) ;
#193 = EDGE_CURVE ( 'NONE', #35, #177, #322, .T. ) ;
#194 = PERSON_AND_ORGANIZATION_ROLE ( 'classification_officer' ) ;
#195 = EDGE_LOOP ( 'NONE', ( #61, #290, #293, #218 ) ) ;
#196 = PRODUCT ( 'R4-003', 'R4-003', '', ( #31 ) ) ;
#197 = AXIS2_PLACEMENT_3D ( 'NONE', #128, #278, #224 ) ;
#198 = PERSON_AND_ORGANIZATION ( #207, #239 ) ;
#199 = ORIENTED_EDGE ( 'NONE', *, *, #236, .T. ) ;
#200 = ORIENTED_EDGE ( 'NONE', *, *, #28, .F. ) ;
#201 = ORIENTED_EDGE ( 'NONE', *, *, #88, .T. ) ;
#202 = LOCAL_TIME ( 8, 10, 52.00000000000000000, #114 ) ;
#203 = DIRECTION ( 'NONE',  ( 1.000000000000000000, 3.885780586188044440E-16, 0.000000000000000000 ) ) ;
#204 = PLANE ( 'NONE',  #228 ) ;
#205 = EDGE_CURVE ( 'NONE', #7, #177, #255, .T. ) ;
#206 = LINE ( 'NONE', #300, #9 ) ;
#207 = PERSON ( 'UNSPECIFIED', 'UNSPECIFIED', 'UNSPECIFIED', ('UNSPECIFIED'), ('UNSPECIFIED'), ('UNSPECIFIED') ) ;
#208 = CARTESIAN_POINT ( 'NONE',  ( -9.349999999999999645, -2.488160090883045937E-15, 18.00000000000001421 ) ) ;
#209 = CARTESIAN_POINT ( 'NONE',  ( 13.00000000000000178, 5.051514762044458315E-15, -2.000000000000001776 ) ) ;
#210 = DIRECTION ( 'NONE',  ( 0.000000000000000000, 0.000000000000000000, -1.000000000000000000 ) ) ;
#211 = CIRCLE ( 'NONE', #256, 15.00000000000001421 ) ;
#212 = DIRECTION ( 'NONE',  ( 1.000000000000000000, 3.885780586188044440E-16, 0.000000000000000000 ) ) ;
#213 = CYLINDRICAL_SURFACE ( 'NONE', #33, 13.00000000000001243 ) ;
#214 = PERSON_AND_ORGANIZATION_ROLE ( 'design_owner' ) ;
#215 = DIRECTION ( 'NONE',  ( 1.000000000000000000, 3.885780586188044933E-16, 0.000000000000000000 ) ) ;
#216 = PRODUCT_RELATED_PRODUCT_CATEGORY ( 'detail', '', ( #196 ) ) ;
#217 = PERSON_AND_ORGANIZATION ( #207, #239 ) ;
#218 = ORIENTED_EDGE ( 'NONE', *, *, #193, .T. ) ;
#219 = ORIENTED_EDGE ( 'NONE', *, *, #233, .T. ) ;
#220 = AXIS2_PLACEMENT_3D ( 'NONE', #140, #110, #259 ) ;
#221 = CYLINDRICAL_SURFACE ( 'NONE', #157, 15.00000000000001421 ) ;
#222 = CARTESIAN_POINT ( 'NONE',  ( -9.349999999999999645, -2.488160090883045937E-15, -2.000000000000001776 ) ) ;
#223 = CARTESIAN_POINT ( 'NONE',  ( 0.000000000000000000, 0.000000000000000000, 18.00000000000001421 ) ) ;
#224 = DIRECTION ( 'NONE',  ( -1.000000000000000000, -3.885780586188044933E-16, 0.000000000000000000 ) ) ;
#225 = EDGE_CURVE ( 'NONE', #125, #67, #164, .T. ) ;
#226 = CARTESIAN_POINT ( 'NONE',  ( 15.00000000000000000, 7.665641078003095904E-15, 18.00000000000001421 ) ) ;
#227 = CARTESIAN_POINT ( 'NONE',  ( 0.000000000000000000, 0.000000000000000000, 18.00000000000001421 ) ) ;
#228 = AXIS2_PLACEMENT_3D ( 'NONE', #299, #321, #26 ) ;
#229 = DIRECTION ( 'NONE',  ( 0.000000000000000000, 0.000000000000000000, 1.000000000000000000 ) ) ;
#230 =( LENGTH_UNIT ( ) NAMED_UNIT ( * ) SI_UNIT ( .MILLI., .METRE. ) );
#231 = LINE ( 'NONE', #111, #182 ) ;
#232 = AXIS2_PLACEMENT_3D ( 'NONE', #234, #107, #212 ) ;
#233 = EDGE_CURVE ( 'NONE', #67, #125, #53, .T. ) ;
#234 = CARTESIAN_POINT ( 'NONE',  ( 0.000000000000000000, 0.000000000000000000, 18.00000000000001421 ) ) ;
#235 = PERSON_AND_ORGANIZATION ( #207, #239 ) ;
#236 = EDGE_CURVE ( 'NONE', #241, #67, #329, .T. ) ;
#237 = APPROVAL_DATE_TIME ( #19, #184 ) ;
#238 = ORIENTED_EDGE ( 'NONE', *, *, #236, .F. ) ;
#239 = ORGANIZATION ( 'UNSPECIFIED', 'UNSPECIFIED', '' ) ;
#240 = SHAPE_DEFINITION_REPRESENTATION ( #43, #308 ) ;
#241 = VERTEX_POINT ( 'NONE', #326 ) ;
#242 = EDGE_LOOP ( 'NONE', ( #192, #312 ) ) ;
#243 = PERSON_AND_ORGANIZATION ( #207, #239 ) ;
#244 = CARTESIAN_POINT ( 'NONE',  ( 13.00000000000001243, 5.051514762044463048E-15, 0.000000000000000000 ) ) ;
#245 = ADVANCED_FACE ( 'NONE', ( #161 ), #154, .T. ) ;
#246 = LOCAL_TIME ( 8, 10, 52.00000000000000000, #247 ) ;
#247 = COORDINATED_UNIVERSAL_TIME_OFFSET ( 1, 0, .AHEAD. ) ;
#248 = DIRECTION ( 'NONE',  ( -0.000000000000000000, -0.000000000000000000, -1.000000000000000000 ) ) ;
#249 = DIRECTION ( 'NONE',  ( 1.000000000000000000, 3.885780586188044440E-16, 0.000000000000000000 ) ) ;
#250 = ADVANCED_FACE ( 'NONE', ( #257, #279 ), #165, .T. ) ;
#251 = DIRECTION ( 'NONE',  ( 0.000000000000000000, -0.000000000000000000, 1.000000000000000000 ) ) ;
#252 = AXIS2_PLACEMENT_3D ( 'NONE', #29, #188, #136 ) ;
#253 = CARTESIAN_POINT ( 'NONE',  ( 0.000000000000000000, 0.000000000000000000, 0.000000000000000000 ) ) ;
#254 = FACE_BOUND ( 'NONE', #41, .T. ) ;
#255 = LINE ( 'NONE', #131, #327 ) ;
#256 = AXIS2_PLACEMENT_3D ( 'NONE', #52, #98, #303 ) ;
#257 = FACE_BOUND ( 'NONE', #262, .T. ) ;
#258 = ORIENTED_EDGE ( 'NONE', *, *, #292, .T. ) ;
#259 = DIRECTION ( 'NONE',  ( 1.000000000000000000, 3.885780586188044440E-16, 0.000000000000000000 ) ) ;
#260 = ADVANCED_FACE ( 'NONE', ( #6 ), #281, .F. ) ;
#261 =( GEOMETRIC_REPRESENTATION_CONTEXT ( 3 ) GLOBAL_UNCERTAINTY_ASSIGNED_CONTEXT ( ( #264 ) ) GLOBAL_UNIT_ASSIGNED_CONTEXT ( ( #230, #3, #284 ) ) REPRESENTATION_CONTEXT ( 'NONE', 'WORKASPACE' ) );
#262 = EDGE_LOOP ( 'NONE', ( #148, #94 ) ) ;
#263 = CYLINDRICAL_SURFACE ( 'NONE', #252, 9.350000000000006750 ) ;
#264 = UNCERTAINTY_MEASURE_WITH_UNIT (LENGTH_MEASURE( 1.000000000000000082E-05 ), #230, 'distance_accuracy_value', 'NONE');
#265 = PERSON_AND_ORGANIZATION_ROLE ( 'creator' ) ;
#266 = ORIENTED_EDGE ( 'NONE', *, *, #120, .T. ) ;
#267 = ORIENTED_EDGE ( 'NONE', *, *, #193, .F. ) ;
#268 = LINE ( 'NONE', #151, #276 ) ;
#269 = EDGE_CURVE ( 'NONE', #64, #147, #176, .T. ) ;
#270 = DIRECTION ( 'NONE',  ( -1.000000000000000000, -3.885780586188044440E-16, 0.000000000000000000 ) ) ;
#271 = AXIS2_PLACEMENT_3D ( 'NONE', #76, #323, #249 ) ;
#272 = CARTESIAN_POINT ( 'NONE',  ( 0.000000000000000000, 0.000000000000000000, 18.00000000000001421 ) ) ;
#273 = APPROVAL ( #124, 'UNSPECIFIED' ) ;
#274 = DIRECTION ( 'NONE',  ( -0.000000000000000000, -0.000000000000000000, 1.000000000000000000 ) ) ;
#275 = DIRECTION ( 'NONE',  ( 0.000000000000000000, 0.000000000000000000, -1.000000000000000000 ) ) ;
#276 = VECTOR ( 'NONE', #45, 1000.000000000000000 ) ;
#277 = DIRECTION ( 'NONE',  ( 0.000000000000000000, 0.000000000000000000, 1.000000000000000000 ) ) ;
#278 = DIRECTION ( 'NONE',  ( 0.000000000000000000, 0.000000000000000000, -1.000000000000000000 ) ) ;
#279 = FACE_OUTER_BOUND ( 'NONE', #295, .T. ) ;
#280 = CIRCLE ( 'NONE', #291, 9.350000000000006750 ) ;
#281 = CYLINDRICAL_SURFACE ( 'NONE', #220, 9.350000000000006750 ) ;
#282 = EDGE_CURVE ( 'NONE', #86, #35, #231, .T. ) ;
#283 = FACE_OUTER_BOUND ( 'NONE', #20, .T. ) ;
#284 =( NAMED_UNIT ( * ) SI_UNIT ( $, .STERADIAN. ) SOLID_ANGLE_UNIT ( ) );
#285 = DIRECTION ( 'NONE',  ( 1.000000000000000000, 3.885780586188044933E-16, 0.000000000000000000 ) ) ;
#286 = AXIS2_PLACEMENT_3D ( 'NONE', #223, #324, #203 ) ;
#287 = DATE_AND_TIME ( #116, #246 ) ;
#288 = ORIENTED_EDGE ( 'NONE', *, *, #149, .T. ) ;
#289 = SECURITY_CLASSIFICATION_LEVEL ( 'unclassified' ) ;
#290 = ORIENTED_EDGE ( 'NONE', *, *, #120, .F. ) ;
#291 = AXIS2_PLACEMENT_3D ( 'NONE', #159, #274, #22 ) ;
#292 = EDGE_CURVE ( 'NONE', #7, #86, #93, .T. ) ;
#293 = ORIENTED_EDGE ( 'NONE', *, *, #282, .T. ) ;
#294 = ORIENTED_EDGE ( 'NONE', *, *, #132, .F. ) ;
#295 = EDGE_LOOP ( 'NONE', ( #266, #258 ) ) ;
#296 = CC_DESIGN_PERSON_AND_ORGANIZATION_ASSIGNMENT ( #235, #214, ( #196 ) ) ;
#297 = DESIGN_CONTEXT ( 'detailed design', #75, 'design' ) ;
#298 = AXIS2_PLACEMENT_3D ( 'NONE', #79, #251, #25 ) ;
#299 = CARTESIAN_POINT ( 'NONE',  ( 0.000000000000000000, 0.000000000000000000, 18.00000000000001421 ) ) ;
#300 = CARTESIAN_POINT ( 'NONE',  ( -15.00000000000001421, -5.828670879282071837E-15, 18.00000000000001421 ) ) ;
#301 = DIRECTION ( 'NONE',  ( 0.000000000000000000, 0.000000000000000000, -1.000000000000000000 ) ) ;
#302 = FACE_BOUND ( 'NONE', #68, .T. ) ;
#303 = DIRECTION ( 'NONE',  ( 1.000000000000000000, 3.885780586188044440E-16, 0.000000000000000000 ) ) ;
#304 = CARTESIAN_POINT ( 'NONE',  ( 0.000000000000000000, 0.000000000000000000, 0.000000000000000000 ) ) ;
#305 = EDGE_CURVE ( 'NONE', #17, #241, #23, .T. ) ;
#306 = APPROVAL_PERSON_ORGANIZATION ( #44, #73, #39 ) ;
#307 = DIRECTION ( 'NONE',  ( 0.000000000000000000, 0.000000000000000000, 1.000000000000000000 ) ) ;
#308 = ADVANCED_BREP_SHAPE_REPRESENTATION ( 'R4-003', ( #78, #57 ), #261 ) ;
#309 = CARTESIAN_POINT ( 'NONE',  ( -15.00000000000000000, -5.828670879282066315E-15, 0.000000000000000000 ) ) ;
#310 = DIRECTION ( 'NONE',  ( 0.000000000000000000, 0.000000000000000000, 1.000000000000000000 ) ) ;
#311 = AXIS2_PLACEMENT_3D ( 'NONE', #272, #77, #183 ) ;
#312 = ORIENTED_EDGE ( 'NONE', *, *, #269, .T. ) ;
#313 = EDGE_LOOP ( 'NONE', ( #200, #97, #117, #288 ) ) ;
#314 = PERSON_AND_ORGANIZATION ( #207, #239 ) ;
#315 = VERTEX_POINT ( 'NONE', #309 ) ;
#316 = ADVANCED_FACE ( 'NONE', ( #142 ), #213, .T. ) ;
#317 = DATE_TIME_ROLE ( 'classification_date' ) ;
#318 = EDGE_LOOP ( 'NONE', ( #115, #96, #167, #144 ) ) ;
#319 = DIRECTION ( 'NONE',  ( 0.000000000000000000, 0.000000000000000000, -1.000000000000000000 ) ) ;
#320 = ORIENTED_EDGE ( 'NONE', *, *, #108, .F. ) ;
#321 = DIRECTION ( 'NONE',  ( 0.000000000000000000, -0.000000000000000000, 1.000000000000000000 ) ) ;
#322 = CIRCLE ( 'NONE', #134, 13.00000000000001243 ) ;
#323 = DIRECTION ( 'NONE',  ( 0.000000000000000000, 0.000000000000000000, 1.000000000000000000 ) ) ;
#324 = DIRECTION ( 'NONE',  ( 0.000000000000000000, 0.000000000000000000, 1.000000000000000000 ) ) ;
#325 = ADVANCED_FACE ( 'NONE', ( #283 ), #263, .F. ) ;
#326 = CARTESIAN_POINT ( 'NONE',  ( 9.349999999999999645, 3.633204848085820992E-15, -2.000000000000001776 ) ) ;
#327 = VECTOR ( 'NONE', #24, 1000.000000000000000 ) ;
#328 = CC_DESIGN_APPROVAL ( #273, ( #105 ) ) ;
#329 = LINE ( 'NONE', #55, #63 ) ;
ENDSEC;
END-ISO-10303-21;
