ISO-10303-21;
HEADER;
FILE_DESCRIPTION (( 'STEP AP203' ),
    '1' );
FILE_NAME ('R4-004.STEP',
    '2022-07-01T06:11:36',
    ( '' ),
    ( '' ),
    'SwSTEP 2.0',
    'SolidWorks 2022',
    '' );
FILE_SCHEMA (( 'CONFIG_CONTROL_DESIGN' ));
ENDSEC;

DATA;
#1 = FACE_OUTER_BOUND ( 'NONE', #135, .T. ) ;
#2 = ORIENTED_EDGE ( 'NONE', *, *, #182, .T. ) ;
#3 =( NAMED_UNIT ( * ) SI_UNIT ( $, .STERADIAN. ) SOLID_ANGLE_UNIT ( ) );
#4 = ORIENTED_EDGE ( 'NONE', *, *, #54, .T. ) ;
#5 = APPLICATION_PROTOCOL_DEFINITION ( 'international standard', 'config_control_design', 1994, #21 ) ;
#6 = MECHANICAL_CONTEXT ( 'NONE', #21, 'mechanical' ) ;
#7 = APPROVAL_ROLE ( '' ) ;
#8 = EDGE_LOOP ( 'NONE', ( #82, #229, #48, #158 ) ) ;
#9 = EDGE_CURVE ( 'NONE', #16, #165, #179, .T. ) ;
#10 = ORIENTED_EDGE ( 'NONE', *, *, #268, .F. ) ;
#11 = CALENDAR_DATE ( 2022, 1, 7 ) ;
#12 = ORIENTED_EDGE ( 'NONE', *, *, #86, .F. ) ;
#13 = VERTEX_POINT ( 'NONE', #216 ) ;
#14 = CIRCLE ( 'NONE', #116, 16.00000000000000000 ) ;
#15 = APPROVAL_STATUS ( 'not_yet_approved' ) ;
#16 = VERTEX_POINT ( 'NONE', #38 ) ;
#17 = EDGE_CURVE ( 'NONE', #292, #255, #14, .T. ) ;
#18 = FACE_BOUND ( 'NONE', #300, .T. ) ;
#19 = CARTESIAN_POINT ( 'NONE',  ( 0.000000000000000000, 0.000000000000000000, 0.000000000000000000 ) ) ;
#20 = VECTOR ( 'NONE', #324, 1000.000000000000000 ) ;
#21 = APPLICATION_CONTEXT ( 'configuration controlled 3d designs of mechanical parts and assemblies' ) ;
#22 = DIRECTION ( 'NONE',  ( 1.000000000000000000, 0.000000000000000000, 0.000000000000000000 ) ) ;
#23 = DIRECTION ( 'NONE',  ( -0.000000000000000000, -0.000000000000000000, 1.000000000000000000 ) ) ;
#24 = DIRECTION ( 'NONE',  ( 1.000000000000000000, 0.000000000000000000, 0.000000000000000000 ) ) ;
#25 = PERSON_AND_ORGANIZATION_ROLE ( 'design_owner' ) ;
#26 = DIRECTION ( 'NONE',  ( 1.000000000000000000, 0.000000000000000000, 0.000000000000000000 ) ) ;
#27 = CYLINDRICAL_SURFACE ( 'NONE', #72, 20.00000000000000000 ) ;
#28 = APPROVAL ( #15, 'UNSPECIFIED' ) ;
#29 = COORDINATED_UNIVERSAL_TIME_OFFSET ( 1, 0, .AHEAD. ) ;
#30 = EDGE_CURVE ( 'NONE', #255, #292, #71, .T. ) ;
#31 = AXIS2_PLACEMENT_3D ( 'NONE', #218, #132, #81 ) ;
#32 = SHAPE_DEFINITION_REPRESENTATION ( #322, #174 ) ;
#33 = VERTEX_POINT ( 'NONE', #61 ) ;
#34 = ORIENTED_EDGE ( 'NONE', *, *, #150, .F. ) ;
#35 = ORIENTED_EDGE ( 'NONE', *, *, #211, .T. ) ;
#36 = LOCAL_TIME ( 8, 11, 36.00000000000000000, #55 ) ;
#37 = VERTEX_POINT ( 'NONE', #139 ) ;
#38 = CARTESIAN_POINT ( 'NONE',  ( 16.00000000000000000, 0.000000000000000000, -2.000000000000000000 ) ) ;
#39 = DIRECTION ( 'NONE',  ( 1.000000000000000000, 0.000000000000000000, 0.000000000000000000 ) ) ;
#40 = SECURITY_CLASSIFICATION ( '', '', #220 ) ;
#41 = CC_DESIGN_DATE_AND_TIME_ASSIGNMENT ( #263, #318, ( #40 ) ) ;
#42 = PLANE ( 'NONE',  #189 ) ;
#43 = CIRCLE ( 'NONE', #275, 12.09999999999999964 ) ;
#44 = CYLINDRICAL_SURFACE ( 'NONE', #286, 16.00000000000000000 ) ;
#45 = CYLINDRICAL_SURFACE ( 'NONE', #254, 12.09999999999999964 ) ;
#46 = CARTESIAN_POINT ( 'NONE',  ( 0.000000000000000000, 0.000000000000000000, 20.00000000000000000 ) ) ;
#47 = EDGE_CURVE ( 'NONE', #271, #111, #195, .T. ) ;
#48 = ORIENTED_EDGE ( 'NONE', *, *, #86, .T. ) ;
#49 = CIRCLE ( 'NONE', #294, 20.00000000000000000 ) ;
#50 = DIRECTION ( 'NONE',  ( -0.000000000000000000, -0.000000000000000000, -1.000000000000000000 ) ) ;
#51 = PERSON_AND_ORGANIZATION ( #287, #181 ) ;
#52 = DIRECTION ( 'NONE',  ( 0.000000000000000000, 0.000000000000000000, 1.000000000000000000 ) ) ;
#53 = APPROVAL_STATUS ( 'not_yet_approved' ) ;
#54 = EDGE_CURVE ( 'NONE', #165, #255, #119, .T. ) ;
#55 = COORDINATED_UNIVERSAL_TIME_OFFSET ( 1, 0, .AHEAD. ) ;
#56 = ORIENTED_EDGE ( 'NONE', *, *, #9, .F. ) ;
#57 = APPROVAL_DATE_TIME ( #164, #28 ) ;
#58 = ORIENTED_EDGE ( 'NONE', *, *, #17, .T. ) ;
#59 = PERSON_AND_ORGANIZATION_ROLE ( 'design_supplier' ) ;
#60 = DIRECTION ( 'NONE',  ( 1.000000000000000000, 0.000000000000000000, 0.000000000000000000 ) ) ;
#61 = CARTESIAN_POINT ( 'NONE',  ( 12.09999999999999964, 0.000000000000000000, 20.00000000000000000 ) ) ;
#62 = ORIENTED_EDGE ( 'NONE', *, *, #114, .T. ) ;
#63 = DIRECTION ( 'NONE',  ( -1.000000000000000000, 0.000000000000000000, 0.000000000000000000 ) ) ;
#64 = ADVANCED_FACE ( 'NONE', ( #169, #1 ), #226, .T. ) ;
#65 = CARTESIAN_POINT ( 'NONE',  ( -20.00000000000000000, 0.000000000000000000, 20.00000000000000000 ) ) ;
#66 = FACE_OUTER_BOUND ( 'NONE', #140, .T. ) ;
#67 = CARTESIAN_POINT ( 'NONE',  ( 20.00000000000000000, 2.449293598294706513E-15, 20.00000000000000000 ) ) ;
#68 = LINE ( 'NONE', #302, #98 ) ;
#69 = ADVANCED_FACE ( 'NONE', ( #276 ), #44, .T. ) ;
#70 = CARTESIAN_POINT ( 'NONE',  ( 0.000000000000000000, 0.000000000000000000, -2.000000000000000000 ) ) ;
#71 = CIRCLE ( 'NONE', #128, 16.00000000000000000 ) ;
#72 = AXIS2_PLACEMENT_3D ( 'NONE', #236, #231, #183 ) ;
#73 = DIRECTION ( 'NONE',  ( -1.000000000000000000, 0.000000000000000000, 0.000000000000000000 ) ) ;
#74 = CARTESIAN_POINT ( 'NONE',  ( 0.000000000000000000, 0.000000000000000000, -2.000000000000000000 ) ) ;
#75 = CYLINDRICAL_SURFACE ( 'NONE', #118, 16.00000000000000000 ) ;
#76 = PERSON_AND_ORGANIZATION ( #287, #181 ) ;
#77 = VERTEX_POINT ( 'NONE', #202 ) ;
#78 = PRODUCT_DEFINITION_FORMATION_WITH_SPECIFIED_SOURCE ( 'ANY', '', #299, .NOT_KNOWN. ) ;
#79 = VERTEX_POINT ( 'NONE', #197 ) ;
#80 = COORDINATED_UNIVERSAL_TIME_OFFSET ( 1, 0, .AHEAD. ) ;
#81 = DIRECTION ( 'NONE',  ( -1.000000000000000000, 0.000000000000000000, 0.000000000000000000 ) ) ;
#82 = ORIENTED_EDGE ( 'NONE', *, *, #47, .F. ) ;
#83 = ORIENTED_EDGE ( 'NONE', *, *, #306, .F. ) ;
#84 = DIRECTION ( 'NONE',  ( 0.000000000000000000, 0.000000000000000000, 1.000000000000000000 ) ) ;
#85 = CIRCLE ( 'NONE', #205, 20.00000000000000000 ) ;
#86 = EDGE_CURVE ( 'NONE', #297, #33, #166, .T. ) ;
#87 = CARTESIAN_POINT ( 'NONE',  ( -12.09999999999999964, 1.481822626968297304E-15, -2.000999999999999446 ) ) ;
#88 = CARTESIAN_POINT ( 'NONE',  ( 0.000000000000000000, 0.000000000000000000, -2.000999999999999446 ) ) ;
#89 = CC_DESIGN_APPROVAL ( #161, ( #78 ) ) ;
#90 = DIRECTION ( 'NONE',  ( 1.000000000000000000, 0.000000000000000000, 0.000000000000000000 ) ) ;
#91 = DIRECTION ( 'NONE',  ( 1.000000000000000000, 0.000000000000000000, -0.000000000000000000 ) ) ;
#92 = APPLICATION_CONTEXT ( 'configuration controlled 3d designs of mechanical parts and assemblies' ) ;
#93 = ORIENTED_EDGE ( 'NONE', *, *, #150, .T. ) ;
#94 = CARTESIAN_POINT ( 'NONE',  ( 0.000000000000000000, 0.000000000000000000, -2.000000000000000000 ) ) ;
#95 = ORIENTED_EDGE ( 'NONE', *, *, #171, .F. ) ;
#96 = LOCAL_TIME ( 8, 11, 36.00000000000000000, #29 ) ;
#97 = CC_DESIGN_PERSON_AND_ORGANIZATION_ASSIGNMENT ( #240, #59, ( #78 ) ) ;
#98 = VECTOR ( 'NONE', #278, 1000.000000000000000 ) ;
#99 = AXIS2_PLACEMENT_3D ( 'NONE', #283, #52, #155 ) ;
#100 =( NAMED_UNIT ( * ) PLANE_ANGLE_UNIT ( ) SI_UNIT ( $, .RADIAN. ) );
#101 = DIRECTION ( 'NONE',  ( 0.000000000000000000, 0.000000000000000000, 1.000000000000000000 ) ) ;
#102 = AXIS2_PLACEMENT_3D ( 'NONE', #227, #120, #329 ) ;
#103 = CIRCLE ( 'NONE', #159, 20.00000000000000000 ) ;
#104 = ADVANCED_FACE ( 'NONE', ( #307 ), #45, .F. ) ;
#105 = APPROVAL_ROLE ( '' ) ;
#106 = ORIENTED_EDGE ( 'NONE', *, *, #310, .F. ) ;
#107 = CALENDAR_DATE ( 2022, 1, 7 ) ;
#108 = ORIENTED_EDGE ( 'NONE', *, *, #323, .T. ) ;
#109 = CALENDAR_DATE ( 2022, 1, 7 ) ;
#110 = APPROVAL_PERSON_ORGANIZATION ( #291, #161, #129 ) ;
#111 = VERTEX_POINT ( 'NONE', #224 ) ;
#112 = EDGE_LOOP ( 'NONE', ( #106, #62, #167, #317 ) ) ;
#113 = CARTESIAN_POINT ( 'NONE',  ( 0.000000000000000000, 0.000000000000000000, -2.000000000000000000 ) ) ;
#114 = EDGE_CURVE ( 'NONE', #77, #37, #201, .T. ) ;
#115 = PLANE ( 'NONE',  #172 ) ;
#116 = AXIS2_PLACEMENT_3D ( 'NONE', #319, #191, #60 ) ;
#117 = CYLINDRICAL_SURFACE ( 'NONE', #249, 12.09999999999999964 ) ;
#118 = AXIS2_PLACEMENT_3D ( 'NONE', #70, #184, #233 ) ;
#119 = LINE ( 'NONE', #272, #293 ) ;
#120 = DIRECTION ( 'NONE',  ( 0.000000000000000000, 0.000000000000000000, -1.000000000000000000 ) ) ;
#121 = PRODUCT_RELATED_PRODUCT_CATEGORY ( 'detail', '', ( #299 ) ) ;
#122 = LINE ( 'NONE', #65, #144 ) ;
#123 = ORIENTED_EDGE ( 'NONE', *, *, #17, .F. ) ;
#124 = FACE_OUTER_BOUND ( 'NONE', #267, .T. ) ;
#125 = EDGE_CURVE ( 'NONE', #16, #292, #198, .T. ) ;
#126 = FACE_OUTER_BOUND ( 'NONE', #192, .T. ) ;
#127 = DIRECTION ( 'NONE',  ( 1.000000000000000000, 0.000000000000000000, 0.000000000000000000 ) ) ;
#128 = AXIS2_PLACEMENT_3D ( 'NONE', #163, #137, #243 ) ;
#129 = APPROVAL_ROLE ( '' ) ;
#130 = CIRCLE ( 'NONE', #325, 16.00000000000000000 ) ;
#131 = DATE_TIME_ROLE ( 'creation_date' ) ;
#132 = DIRECTION ( 'NONE',  ( 0.000000000000000000, 0.000000000000000000, -1.000000000000000000 ) ) ;
#133 = MANIFOLD_SOLID_BREP ( 'Extrusion3', #154 ) ;
#134 = DATE_AND_TIME ( #11, #96 ) ;
#135 = EDGE_LOOP ( 'NONE', ( #221, #108 ) ) ;
#136 = PERSON_AND_ORGANIZATION ( #287, #181 ) ;
#137 = DIRECTION ( 'NONE',  ( -0.000000000000000000, -0.000000000000000000, -1.000000000000000000 ) ) ;
#138 = AXIS2_PLACEMENT_3D ( 'NONE', #113, #321, #63 ) ;
#139 = CARTESIAN_POINT ( 'NONE',  ( 20.00000000000000000, 2.449293598294706513E-15, 0.000000000000000000 ) ) ;
#140 = EDGE_LOOP ( 'NONE', ( #290, #214 ) ) ;
#141 = CC_DESIGN_PERSON_AND_ORGANIZATION_ASSIGNMENT ( #76, #217, ( #40 ) ) ;
#142 = DIRECTION ( 'NONE',  ( -0.000000000000000000, -0.000000000000000000, 1.000000000000000000 ) ) ;
#143 = LOCAL_TIME ( 8, 11, 36.00000000000000000, #80 ) ;
#144 = VECTOR ( 'NONE', #228, 1000.000000000000000 ) ;
#145 = CARTESIAN_POINT ( 'NONE',  ( 0.000000000000000000, 0.000000000000000000, 0.000000000000000000 ) ) ;
#146 = DIRECTION ( 'NONE',  ( 0.000000000000000000, 0.000000000000000000, 1.000000000000000000 ) ) ;
#147 = FACE_OUTER_BOUND ( 'NONE', #212, .T. ) ;
#148 = AXIS2_PLACEMENT_3D ( 'NONE', #94, #288, #73 ) ;
#149 = ORIENTED_EDGE ( 'NONE', *, *, #54, .F. ) ;
#150 = EDGE_CURVE ( 'NONE', #13, #37, #103, .T. ) ;
#151 = DIRECTION ( 'NONE',  ( 0.000000000000000000, 0.000000000000000000, 1.000000000000000000 ) ) ;
#152 = APPLICATION_PROTOCOL_DEFINITION ( 'international standard', 'config_control_design', 1994, #92 ) ;
#153 = CARTESIAN_POINT ( 'NONE',  ( 0.000000000000000000, 0.000000000000000000, 20.00000000000000000 ) ) ;
#154 = CLOSED_SHELL ( 'NONE', ( #104, #282, #262, #219, #328, #244, #69, #64, #168 ) ) ;
#155 = DIRECTION ( 'NONE',  ( 1.000000000000000000, 0.000000000000000000, 0.000000000000000000 ) ) ;
#156 = COORDINATED_UNIVERSAL_TIME_OFFSET ( 1, 0, .AHEAD. ) ;
#157 = PERSON_AND_ORGANIZATION_ROLE ( 'creator' ) ;
#158 = ORIENTED_EDGE ( 'NONE', *, *, #182, .F. ) ;
#159 = AXIS2_PLACEMENT_3D ( 'NONE', #19, #146, #175 ) ;
#160 = CIRCLE ( 'NONE', #148, 12.09999999999999964 ) ;
#161 = APPROVAL ( #193, 'UNSPECIFIED' ) ;
#162 = EDGE_LOOP ( 'NONE', ( #123, #320 ) ) ;
#163 = CARTESIAN_POINT ( 'NONE',  ( 0.000000000000000000, 0.000000000000000000, 0.000000000000000000 ) ) ;
#164 = DATE_AND_TIME ( #190, #143 ) ;
#165 = VERTEX_POINT ( 'NONE', #277 ) ;
#166 = CIRCLE ( 'NONE', #265, 12.09999999999999964 ) ;
#167 = ORIENTED_EDGE ( 'NONE', *, *, #268, .T. ) ;
#168 = ADVANCED_FACE ( 'NONE', ( #147 ), #117, .F. ) ;
#169 = FACE_BOUND ( 'NONE', #187, .T. ) ;
#170 = FACE_OUTER_BOUND ( 'NONE', #245, .T. ) ;
#171 = EDGE_CURVE ( 'NONE', #271, #297, #176, .T. ) ;
#172 = AXIS2_PLACEMENT_3D ( 'NONE', #222, #84, #257 ) ;
#173 = DIRECTION ( 'NONE',  ( -0.000000000000000000, -0.000000000000000000, -1.000000000000000000 ) ) ;
#174 = ADVANCED_BREP_SHAPE_REPRESENTATION ( 'R4-004', ( #133, #99 ), #266 ) ;
#175 = DIRECTION ( 'NONE',  ( 1.000000000000000000, 0.000000000000000000, 0.000000000000000000 ) ) ;
#176 = LINE ( 'NONE', #87, #20 ) ;
#177 = DESIGN_CONTEXT ( 'detailed design', #92, 'design' ) ;
#178 = FACE_OUTER_BOUND ( 'NONE', #112, .T. ) ;
#179 = CIRCLE ( 'NONE', #31, 16.00000000000000000 ) ;
#180 = CARTESIAN_POINT ( 'NONE',  ( 16.00000000000000000, 0.000000000000000000, 0.000000000000000000 ) ) ;
#181 = ORGANIZATION ( 'UNSPECIFIED', 'UNSPECIFIED', '' ) ;
#182 = EDGE_CURVE ( 'NONE', #111, #33, #68, .T. ) ;
#183 = DIRECTION ( 'NONE',  ( -1.000000000000000000, 0.000000000000000000, 0.000000000000000000 ) ) ;
#184 = DIRECTION ( 'NONE',  ( -0.000000000000000000, -0.000000000000000000, 1.000000000000000000 ) ) ;
#185 = ORIENTED_EDGE ( 'NONE', *, *, #230, .T. ) ;
#186 = APPROVAL ( #53, 'UNSPECIFIED' ) ;
#187 = EDGE_LOOP ( 'NONE', ( #264, #269 ) ) ;
#188 = LOCAL_TIME ( 8, 11, 36.00000000000000000, #156 ) ;
#189 = AXIS2_PLACEMENT_3D ( 'NONE', #145, #250, #91 ) ;
#190 = CALENDAR_DATE ( 2022, 1, 7 ) ;
#191 = DIRECTION ( 'NONE',  ( -0.000000000000000000, -0.000000000000000000, -1.000000000000000000 ) ) ;
#192 = EDGE_LOOP ( 'NONE', ( #194, #4, #270, #315 ) ) ;
#193 = APPROVAL_STATUS ( 'not_yet_approved' ) ;
#194 = ORIENTED_EDGE ( 'NONE', *, *, #323, .F. ) ;
#195 = CIRCLE ( 'NONE', #138, 12.09999999999999964 ) ;
#196 = AXIS2_PLACEMENT_3D ( 'NONE', #285, #101, #127 ) ;
#197 = CARTESIAN_POINT ( 'NONE',  ( -20.00000000000000000, 0.000000000000000000, 20.00000000000000000 ) ) ;
#198 = LINE ( 'NONE', #251, #301 ) ;
#199 = CC_DESIGN_DATE_AND_TIME_ASSIGNMENT ( #210, #131, ( #225 ) ) ;
#200 = DIRECTION ( 'NONE',  ( -0.000000000000000000, -0.000000000000000000, 1.000000000000000000 ) ) ;
#201 = LINE ( 'NONE', #67, #209 ) ;
#202 = CARTESIAN_POINT ( 'NONE',  ( 20.00000000000000000, 2.449293598294706513E-15, 20.00000000000000000 ) ) ;
#203 = CC_DESIGN_PERSON_AND_ORGANIZATION_ASSIGNMENT ( #242, #296, ( #225 ) ) ;
#204 = CARTESIAN_POINT ( 'NONE',  ( -12.09999999999999964, 1.481822626968297304E-15, 20.00000000000000000 ) ) ;
#205 = AXIS2_PLACEMENT_3D ( 'NONE', #313, #151, #206 ) ;
#206 = DIRECTION ( 'NONE',  ( 1.000000000000000000, 0.000000000000000000, 0.000000000000000000 ) ) ;
#207 = CC_DESIGN_PERSON_AND_ORGANIZATION_ASSIGNMENT ( #51, #25, ( #299 ) ) ;
#208 = DIRECTION ( 'NONE',  ( 0.000000000000000000, 0.000000000000000000, 1.000000000000000000 ) ) ;
#209 = VECTOR ( 'NONE', #173, 1000.000000000000000 ) ;
#210 = DATE_AND_TIME ( #109, #36 ) ;
#211 = EDGE_CURVE ( 'NONE', #79, #13, #122, .T. ) ;
#212 = EDGE_LOOP ( 'NONE', ( #95, #83, #2, #185 ) ) ;
#213 = APPROVAL_DATE_TIME ( #134, #186 ) ;
#214 = ORIENTED_EDGE ( 'NONE', *, *, #310, .T. ) ;
#215 = COORDINATED_UNIVERSAL_TIME_OFFSET ( 1, 0, .AHEAD. ) ;
#216 = CARTESIAN_POINT ( 'NONE',  ( -20.00000000000000000, 0.000000000000000000, 0.000000000000000000 ) ) ;
#217 = PERSON_AND_ORGANIZATION_ROLE ( 'classification_officer' ) ;
#218 = CARTESIAN_POINT ( 'NONE',  ( 0.000000000000000000, 0.000000000000000000, -2.000000000000000000 ) ) ;
#219 = ADVANCED_FACE ( 'NONE', ( #170, #274 ), #42, .F. ) ;
#220 = SECURITY_CLASSIFICATION_LEVEL ( 'unclassified' ) ;
#221 = ORIENTED_EDGE ( 'NONE', *, *, #9, .T. ) ;
#222 = CARTESIAN_POINT ( 'NONE',  ( 0.000000000000000000, 0.000000000000000000, 20.00000000000000000 ) ) ;
#223 = APPROVAL_PERSON_ORGANIZATION ( #316, #28, #7 ) ;
#224 = CARTESIAN_POINT ( 'NONE',  ( 12.09999999999999964, 0.000000000000000000, -2.000000000000000000 ) ) ;
#225 = PRODUCT_DEFINITION ( 'UNKNOWN', '', #78, #177 ) ;
#226 = PLANE ( 'NONE',  #102 ) ;
#227 = CARTESIAN_POINT ( 'NONE',  ( 0.000000000000000000, 0.000000000000000000, -2.000000000000000000 ) ) ;
#228 = DIRECTION ( 'NONE',  ( -0.000000000000000000, -0.000000000000000000, -1.000000000000000000 ) ) ;
#229 = ORIENTED_EDGE ( 'NONE', *, *, #171, .T. ) ;
#230 = EDGE_CURVE ( 'NONE', #33, #297, #43, .T. ) ;
#231 = DIRECTION ( 'NONE',  ( -0.000000000000000000, -0.000000000000000000, -1.000000000000000000 ) ) ;
#232 = ORIENTED_EDGE ( 'NONE', *, *, #230, .F. ) ;
#233 = DIRECTION ( 'NONE',  ( 1.000000000000000000, 0.000000000000000000, 0.000000000000000000 ) ) ;
#234 = APPROVAL_PERSON_ORGANIZATION ( #136, #186, #105 ) ;
#235 = DIRECTION ( 'NONE',  ( -1.000000000000000000, 0.000000000000000000, 0.000000000000000000 ) ) ;
#236 = CARTESIAN_POINT ( 'NONE',  ( 0.000000000000000000, 0.000000000000000000, 20.00000000000000000 ) ) ;
#237 = CALENDAR_DATE ( 2022, 1, 7 ) ;
#238 = AXIS2_PLACEMENT_3D ( 'NONE', #153, #50, #235 ) ;
#239 = ORIENTED_EDGE ( 'NONE', *, *, #114, .F. ) ;
#240 = PERSON_AND_ORGANIZATION ( #287, #181 ) ;
#241 = EDGE_LOOP ( 'NONE', ( #149, #56, #281, #58 ) ) ;
#242 = PERSON_AND_ORGANIZATION ( #287, #181 ) ;
#243 = DIRECTION ( 'NONE',  ( 1.000000000000000000, 0.000000000000000000, 0.000000000000000000 ) ) ;
#244 = ADVANCED_FACE ( 'NONE', ( #18, #66 ), #115, .T. ) ;
#245 = EDGE_LOOP ( 'NONE', ( #34, #10 ) ) ;
#246 = DIRECTION ( 'NONE',  ( 0.000000000000000000, 0.000000000000000000, 1.000000000000000000 ) ) ;
#247 = EDGE_CURVE ( 'NONE', #79, #77, #49, .T. ) ;
#248 = CARTESIAN_POINT ( 'NONE',  ( 0.000000000000000000, 0.000000000000000000, -2.000000000000000000 ) ) ;
#249 = AXIS2_PLACEMENT_3D ( 'NONE', #88, #253, #24 ) ;
#250 = DIRECTION ( 'NONE',  ( 0.000000000000000000, 0.000000000000000000, 1.000000000000000000 ) ) ;
#251 = CARTESIAN_POINT ( 'NONE',  ( 16.00000000000000000, 0.000000000000000000, -2.000000000000000000 ) ) ;
#252 = UNCERTAINTY_MEASURE_WITH_UNIT (LENGTH_MEASURE( 1.000000000000000082E-05 ), #312, 'distance_accuracy_value', 'NONE');
#253 = DIRECTION ( 'NONE',  ( -0.000000000000000000, -0.000000000000000000, 1.000000000000000000 ) ) ;
#254 = AXIS2_PLACEMENT_3D ( 'NONE', #308, #327, #90 ) ;
#255 = VERTEX_POINT ( 'NONE', #260 ) ;
#256 = CARTESIAN_POINT ( 'NONE',  ( 0.000000000000000000, 0.000000000000000000, 20.00000000000000000 ) ) ;
#257 = DIRECTION ( 'NONE',  ( 1.000000000000000000, 0.000000000000000000, -0.000000000000000000 ) ) ;
#258 = CC_DESIGN_APPROVAL ( #186, ( #225 ) ) ;
#259 = DIRECTION ( 'NONE',  ( 0.000000000000000000, 0.000000000000000000, -1.000000000000000000 ) ) ;
#260 = CARTESIAN_POINT ( 'NONE',  ( -16.00000000000000000, 1.959434878635765131E-15, 0.000000000000000000 ) ) ;
#261 = DATE_AND_TIME ( #237, #188 ) ;
#262 = ADVANCED_FACE ( 'NONE', ( #178 ), #280, .T. ) ;
#263 = DATE_AND_TIME ( #107, #273 ) ;
#264 = ORIENTED_EDGE ( 'NONE', *, *, #306, .T. ) ;
#265 = AXIS2_PLACEMENT_3D ( 'NONE', #303, #305, #39 ) ;
#266 =( GEOMETRIC_REPRESENTATION_CONTEXT ( 3 ) GLOBAL_UNCERTAINTY_ASSIGNED_CONTEXT ( ( #252 ) ) GLOBAL_UNIT_ASSIGNED_CONTEXT ( ( #312, #100, #3 ) ) REPRESENTATION_CONTEXT ( 'NONE', 'WORKASPACE' ) );
#267 = EDGE_LOOP ( 'NONE', ( #239, #298, #35, #93 ) ) ;
#268 = EDGE_CURVE ( 'NONE', #37, #13, #85, .T. ) ;
#269 = ORIENTED_EDGE ( 'NONE', *, *, #47, .T. ) ;
#270 = ORIENTED_EDGE ( 'NONE', *, *, #30, .T. ) ;
#271 = VERTEX_POINT ( 'NONE', #309 ) ;
#272 = CARTESIAN_POINT ( 'NONE',  ( -16.00000000000000000, 1.959434878635765131E-15, -2.000000000000000000 ) ) ;
#273 = LOCAL_TIME ( 8, 11, 36.00000000000000000, #215 ) ;
#274 = FACE_BOUND ( 'NONE', #162, .T. ) ;
#275 = AXIS2_PLACEMENT_3D ( 'NONE', #46, #246, #22 ) ;
#276 = FACE_OUTER_BOUND ( 'NONE', #241, .T. ) ;
#277 = CARTESIAN_POINT ( 'NONE',  ( -16.00000000000000000, 1.959434878635765131E-15, -2.000000000000000000 ) ) ;
#278 = DIRECTION ( 'NONE',  ( -0.000000000000000000, -0.000000000000000000, 1.000000000000000000 ) ) ;
#279 = CIRCLE ( 'NONE', #196, 20.00000000000000000 ) ;
#280 = CYLINDRICAL_SURFACE ( 'NONE', #238, 20.00000000000000000 ) ;
#281 = ORIENTED_EDGE ( 'NONE', *, *, #125, .T. ) ;
#282 = ADVANCED_FACE ( 'NONE', ( #126 ), #75, .T. ) ;
#283 = CARTESIAN_POINT ( 'NONE',  ( 0.000000000000000000, 0.000000000000000000, 0.000000000000000000 ) ) ;
#284 = CC_DESIGN_APPROVAL ( #28, ( #40 ) ) ;
#285 = CARTESIAN_POINT ( 'NONE',  ( 0.000000000000000000, 0.000000000000000000, 20.00000000000000000 ) ) ;
#286 = AXIS2_PLACEMENT_3D ( 'NONE', #248, #200, #326 ) ;
#287 = PERSON ( 'UNSPECIFIED', 'UNSPECIFIED', 'UNSPECIFIED', ('UNSPECIFIED'), ('UNSPECIFIED'), ('UNSPECIFIED') ) ;
#288 = DIRECTION ( 'NONE',  ( -0.000000000000000000, -0.000000000000000000, 1.000000000000000000 ) ) ;
#289 = PERSON_AND_ORGANIZATION ( #287, #181 ) ;
#290 = ORIENTED_EDGE ( 'NONE', *, *, #247, .T. ) ;
#291 = PERSON_AND_ORGANIZATION ( #287, #181 ) ;
#292 = VERTEX_POINT ( 'NONE', #180 ) ;
#293 = VECTOR ( 'NONE', #23, 1000.000000000000000 ) ;
#294 = AXIS2_PLACEMENT_3D ( 'NONE', #256, #208, #26 ) ;
#295 = CC_DESIGN_PERSON_AND_ORGANIZATION_ASSIGNMENT ( #289, #157, ( #78 ) ) ;
#296 = PERSON_AND_ORGANIZATION_ROLE ( 'creator' ) ;
#297 = VERTEX_POINT ( 'NONE', #204 ) ;
#298 = ORIENTED_EDGE ( 'NONE', *, *, #247, .F. ) ;
#299 = PRODUCT ( 'R4-004', 'R4-004', '', ( #6 ) ) ;
#300 = EDGE_LOOP ( 'NONE', ( #232, #12 ) ) ;
#301 = VECTOR ( 'NONE', #142, 1000.000000000000000 ) ;
#302 = CARTESIAN_POINT ( 'NONE',  ( 12.09999999999999964, 0.000000000000000000, -2.000999999999999446 ) ) ;
#303 = CARTESIAN_POINT ( 'NONE',  ( 0.000000000000000000, 0.000000000000000000, 20.00000000000000000 ) ) ;
#304 = CC_DESIGN_SECURITY_CLASSIFICATION ( #40, ( #78 ) ) ;
#305 = DIRECTION ( 'NONE',  ( 0.000000000000000000, 0.000000000000000000, 1.000000000000000000 ) ) ;
#306 = EDGE_CURVE ( 'NONE', #111, #271, #160, .T. ) ;
#307 = FACE_OUTER_BOUND ( 'NONE', #8, .T. ) ;
#308 = CARTESIAN_POINT ( 'NONE',  ( 0.000000000000000000, 0.000000000000000000, -2.000999999999999446 ) ) ;
#309 = CARTESIAN_POINT ( 'NONE',  ( -12.09999999999999964, 1.481822626968297304E-15, -2.000000000000000000 ) ) ;
#310 = EDGE_CURVE ( 'NONE', #77, #79, #279, .T. ) ;
#311 = DIRECTION ( 'NONE',  ( -1.000000000000000000, 0.000000000000000000, 0.000000000000000000 ) ) ;
#312 =( LENGTH_UNIT ( ) NAMED_UNIT ( * ) SI_UNIT ( .MILLI., .METRE. ) );
#313 = CARTESIAN_POINT ( 'NONE',  ( 0.000000000000000000, 0.000000000000000000, 0.000000000000000000 ) ) ;
#314 = APPROVAL_DATE_TIME ( #261, #161 ) ;
#315 = ORIENTED_EDGE ( 'NONE', *, *, #125, .F. ) ;
#316 = PERSON_AND_ORGANIZATION ( #287, #181 ) ;
#317 = ORIENTED_EDGE ( 'NONE', *, *, #211, .F. ) ;
#318 = DATE_TIME_ROLE ( 'classification_date' ) ;
#319 = CARTESIAN_POINT ( 'NONE',  ( 0.000000000000000000, 0.000000000000000000, 0.000000000000000000 ) ) ;
#320 = ORIENTED_EDGE ( 'NONE', *, *, #30, .F. ) ;
#321 = DIRECTION ( 'NONE',  ( -0.000000000000000000, -0.000000000000000000, 1.000000000000000000 ) ) ;
#322 = PRODUCT_DEFINITION_SHAPE ( 'NONE', 'NONE',  #225 ) ;
#323 = EDGE_CURVE ( 'NONE', #165, #16, #130, .T. ) ;
#324 = DIRECTION ( 'NONE',  ( -0.000000000000000000, -0.000000000000000000, 1.000000000000000000 ) ) ;
#325 = AXIS2_PLACEMENT_3D ( 'NONE', #74, #259, #311 ) ;
#326 = DIRECTION ( 'NONE',  ( 1.000000000000000000, 0.000000000000000000, 0.000000000000000000 ) ) ;
#327 = DIRECTION ( 'NONE',  ( -0.000000000000000000, -0.000000000000000000, 1.000000000000000000 ) ) ;
#328 = ADVANCED_FACE ( 'NONE', ( #124 ), #27, .T. ) ;
#329 = DIRECTION ( 'NONE',  ( -1.000000000000000000, 0.000000000000000000, -0.000000000000000000 ) ) ;
ENDSEC;
END-ISO-10303-21;
