ISO-10303-21;
HEADER;
FILE_DESCRIPTION (( 'STEP AP203' ),
    '1' );
FILE_NAME ('R4-005.STEP',
    '2022-07-01T06:12:31',
    ( '' ),
    ( '' ),
    'SwSTEP 2.0',
    'SolidWorks 2022',
    '' );
FILE_SCHEMA (( 'CONFIG_CONTROL_DESIGN' ));
ENDSEC;

DATA;
#1 = APPROVAL_ROLE ( '' ) ;
#2 = VECTOR ( 'NONE', #317, 1000.000000000000000 ) ;
#3 = ADVANCED_FACE ( 'NONE', ( #187, #58 ), #162, .T. ) ;
#4 = CARTESIAN_POINT ( 'NONE',  ( 0.000000000000000000, 0.000000000000000000, -2.000000000000000000 ) ) ;
#5 = VECTOR ( 'NONE', #77, 1000.000000000000000 ) ;
#6 = COORDINATED_UNIVERSAL_TIME_OFFSET ( 1, 0, .AHEAD. ) ;
#7 = LINE ( 'NONE', #298, #241 ) ;
#8 = CALENDAR_DATE ( 2022, 1, 7 ) ;
#9 = FACE_OUTER_BOUND ( 'NONE', #258, .T. ) ;
#10 = CC_DESIGN_PERSON_AND_ORGANIZATION_ASSIGNMENT ( #306, #185, ( #78 ) ) ;
#11 = PERSON_AND_ORGANIZATION ( #213, #270 ) ;
#12 = DIRECTION ( 'NONE',  ( -1.000000000000000000, 0.000000000000000000, 0.000000000000000000 ) ) ;
#13 = CARTESIAN_POINT ( 'NONE',  ( 0.000000000000000000, 0.000000000000000000, 25.00000000000000000 ) ) ;
#14 = UNCERTAINTY_MEASURE_WITH_UNIT (LENGTH_MEASURE( 1.000000000000000082E-05 ), #46, 'distance_accuracy_value', 'NONE');
#15 = CC_DESIGN_DATE_AND_TIME_ASSIGNMENT ( #327, #287, ( #78 ) ) ;
#16 = ORIENTED_EDGE ( 'NONE', *, *, #69, .T. ) ;
#17 = EDGE_CURVE ( 'NONE', #203, #40, #7, .T. ) ;
#18 = DIRECTION ( 'NONE',  ( 0.000000000000000000, 0.000000000000000000, -1.000000000000000000 ) ) ;
#19 = AXIS2_PLACEMENT_3D ( 'NONE', #90, #194, #295 ) ;
#20 = DIRECTION ( 'NONE',  ( 1.000000000000000000, 0.000000000000000000, 0.000000000000000000 ) ) ;
#21 = DIRECTION ( 'NONE',  ( 0.000000000000000000, 0.000000000000000000, 1.000000000000000000 ) ) ;
#22 = VERTEX_POINT ( 'NONE', #170 ) ;
#23 = PLANE ( 'NONE',  #310 ) ;
#24 = ORIENTED_EDGE ( 'NONE', *, *, #136, .T. ) ;
#25 = AXIS2_PLACEMENT_3D ( 'NONE', #173, #168, #167 ) ;
#26 = DIRECTION ( 'NONE',  ( 0.000000000000000000, 0.000000000000000000, 1.000000000000000000 ) ) ;
#27 = PERSON_AND_ORGANIZATION_ROLE ( 'design_owner' ) ;
#28 = CALENDAR_DATE ( 2022, 1, 7 ) ;
#29 = EDGE_CURVE ( 'NONE', #229, #55, #319, .T. ) ;
#30 = CARTESIAN_POINT ( 'NONE',  ( 0.000000000000000000, 0.000000000000000000, -2.000999999999999446 ) ) ;
#31 = AXIS2_PLACEMENT_3D ( 'NONE', #102, #277, #20 ) ;
#32 =( GEOMETRIC_REPRESENTATION_CONTEXT ( 3 ) GLOBAL_UNCERTAINTY_ASSIGNED_CONTEXT ( ( #14 ) ) GLOBAL_UNIT_ASSIGNED_CONTEXT ( ( #46, #320, #200 ) ) REPRESENTATION_CONTEXT ( 'NONE', 'WORKASPACE' ) );
#33 = DIRECTION ( 'NONE',  ( -0.000000000000000000, -0.000000000000000000, -1.000000000000000000 ) ) ;
#34 = AXIS2_PLACEMENT_3D ( 'NONE', #4, #191, #65 ) ;
#35 = CARTESIAN_POINT ( 'NONE',  ( 22.50000000000000355, 2.755455298081545172E-15, 25.00000000000000000 ) ) ;
#36 = DIRECTION ( 'NONE',  ( 1.000000000000000000, 0.000000000000000000, 0.000000000000000000 ) ) ;
#37 = DIRECTION ( 'NONE',  ( -0.000000000000000000, -0.000000000000000000, -1.000000000000000000 ) ) ;
#38 = VERTEX_POINT ( 'NONE', #214 ) ;
#39 = CARTESIAN_POINT ( 'NONE',  ( 0.000000000000000000, 0.000000000000000000, -2.000999999999999446 ) ) ;
#40 = VERTEX_POINT ( 'NONE', #165 ) ;
#41 = ADVANCED_FACE ( 'NONE', ( #297 ), #134, .T. ) ;
#42 = LINE ( 'NONE', #232, #48 ) ;
#43 = DIRECTION ( 'NONE',  ( -1.000000000000000000, 0.000000000000000000, 0.000000000000000000 ) ) ;
#44 = FACE_OUTER_BOUND ( 'NONE', #324, .T. ) ;
#45 = ORIENTED_EDGE ( 'NONE', *, *, #93, .F. ) ;
#46 =( LENGTH_UNIT ( ) NAMED_UNIT ( * ) SI_UNIT ( .MILLI., .METRE. ) );
#47 = APPROVAL_ROLE ( '' ) ;
#48 = VECTOR ( 'NONE', #274, 1000.000000000000000 ) ;
#49 = AXIS2_PLACEMENT_3D ( 'NONE', #281, #26, #155 ) ;
#50 = APPROVAL ( #161, 'UNSPECIFIED' ) ;
#51 = CARTESIAN_POINT ( 'NONE',  ( 0.000000000000000000, 0.000000000000000000, -2.000000000000000000 ) ) ;
#52 = EDGE_LOOP ( 'NONE', ( #179, #101, #290, #16 ) ) ;
#53 = CALENDAR_DATE ( 2022, 1, 7 ) ;
#54 = EDGE_CURVE ( 'NONE', #22, #307, #138, .T. ) ;
#55 = VERTEX_POINT ( 'NONE', #113 ) ;
#56 = SECURITY_CLASSIFICATION ( '', '', #57 ) ;
#57 = SECURITY_CLASSIFICATION_LEVEL ( 'unclassified' ) ;
#58 = FACE_OUTER_BOUND ( 'NONE', #104, .T. ) ;
#59 = DIRECTION ( 'NONE',  ( 0.000000000000000000, 0.000000000000000000, 1.000000000000000000 ) ) ;
#60 = APPLICATION_CONTEXT ( 'configuration controlled 3d designs of mechanical parts and assemblies' ) ;
#61 = PERSON_AND_ORGANIZATION_ROLE ( 'creator' ) ;
#62 = LOCAL_TIME ( 8, 12, 31.00000000000000000, #237 ) ;
#63 = DIRECTION ( 'NONE',  ( 1.000000000000000000, 0.000000000000000000, 0.000000000000000000 ) ) ;
#64 = DIRECTION ( 'NONE',  ( 0.000000000000000000, 0.000000000000000000, 1.000000000000000000 ) ) ;
#65 = DIRECTION ( 'NONE',  ( 1.000000000000000000, 0.000000000000000000, 0.000000000000000000 ) ) ;
#66 = DIRECTION ( 'NONE',  ( 0.000000000000000000, 0.000000000000000000, 1.000000000000000000 ) ) ;
#67 = CC_DESIGN_APPROVAL ( #175, ( #56 ) ) ;
#68 = ORIENTED_EDGE ( 'NONE', *, *, #177, .T. ) ;
#69 = EDGE_CURVE ( 'NONE', #40, #217, #184, .T. ) ;
#70 = AXIS2_PLACEMENT_3D ( 'NONE', #124, #99, #202 ) ;
#71 = DIRECTION ( 'NONE',  ( -0.000000000000000000, -0.000000000000000000, 1.000000000000000000 ) ) ;
#72 = DIRECTION ( 'NONE',  ( -0.000000000000000000, -0.000000000000000000, 1.000000000000000000 ) ) ;
#73 = FACE_OUTER_BOUND ( 'NONE', #163, .T. ) ;
#74 = APPROVAL_PERSON_ORGANIZATION ( #206, #50, #47 ) ;
#75 = ORIENTED_EDGE ( 'NONE', *, *, #321, .T. ) ;
#76 = ORIENTED_EDGE ( 'NONE', *, *, #208, .F. ) ;
#77 = DIRECTION ( 'NONE',  ( -0.000000000000000000, -0.000000000000000000, 1.000000000000000000 ) ) ;
#78 = PRODUCT_DEFINITION ( 'UNKNOWN', '', #183, #119 ) ;
#79 = AXIS2_PLACEMENT_3D ( 'NONE', #144, #72, #300 ) ;
#80 = ADVANCED_FACE ( 'NONE', ( #110 ), #220, .T. ) ;
#81 = AXIS2_PLACEMENT_3D ( 'NONE', #316, #92, #12 ) ;
#82 = APPROVAL_STATUS ( 'not_yet_approved' ) ;
#83 = ORIENTED_EDGE ( 'NONE', *, *, #222, .T. ) ;
#84 = CALENDAR_DATE ( 2022, 1, 7 ) ;
#85 = DIRECTION ( 'NONE',  ( 0.000000000000000000, 0.000000000000000000, 1.000000000000000000 ) ) ;
#86 = DIRECTION ( 'NONE',  ( -0.000000000000000000, -0.000000000000000000, -1.000000000000000000 ) ) ;
#87 = DATE_AND_TIME ( #8, #329 ) ;
#88 = CIRCLE ( 'NONE', #81, 15.15000000000000036 ) ;
#89 = APPLICATION_CONTEXT ( 'configuration controlled 3d designs of mechanical parts and assemblies' ) ;
#90 = CARTESIAN_POINT ( 'NONE',  ( 0.000000000000000000, 0.000000000000000000, 0.000000000000000000 ) ) ;
#91 = EDGE_LOOP ( 'NONE', ( #201, #205 ) ) ;
#92 = DIRECTION ( 'NONE',  ( -0.000000000000000000, -0.000000000000000000, 1.000000000000000000 ) ) ;
#93 = EDGE_CURVE ( 'NONE', #275, #55, #267, .T. ) ;
#94 = CARTESIAN_POINT ( 'NONE',  ( 0.000000000000000000, 0.000000000000000000, 25.00000000000000000 ) ) ;
#95 = FACE_OUTER_BOUND ( 'NONE', #322, .T. ) ;
#96 = CARTESIAN_POINT ( 'NONE',  ( 15.15000000000000036, 0.000000000000000000, 25.00000000000000000 ) ) ;
#97 = APPLICATION_PROTOCOL_DEFINITION ( 'international standard', 'config_control_design', 1994, #60 ) ;
#98 = ORIENTED_EDGE ( 'NONE', *, *, #106, .F. ) ;
#99 = DIRECTION ( 'NONE',  ( 0.000000000000000000, 0.000000000000000000, 1.000000000000000000 ) ) ;
#100 = LOCAL_TIME ( 8, 12, 31.00000000000000000, #130 ) ;
#101 = ORIENTED_EDGE ( 'NONE', *, *, #177, .F. ) ;
#102 = CARTESIAN_POINT ( 'NONE',  ( 0.000000000000000000, 0.000000000000000000, 0.000000000000000000 ) ) ;
#103 = PRODUCT_RELATED_PRODUCT_CATEGORY ( 'detail', '', ( #293 ) ) ;
#104 = EDGE_LOOP ( 'NONE', ( #152, #285 ) ) ;
#105 = ADVANCED_BREP_SHAPE_REPRESENTATION ( 'R4-005', ( #148, #49 ), #32 ) ;
#106 = EDGE_CURVE ( 'NONE', #209, #307, #236, .T. ) ;
#107 = AXIS2_PLACEMENT_3D ( 'NONE', #117, #196, #240 ) ;
#108 = CC_DESIGN_DATE_AND_TIME_ASSIGNMENT ( #87, #296, ( #56 ) ) ;
#109 = AXIS2_PLACEMENT_3D ( 'NONE', #94, #85, #189 ) ;
#110 = FACE_OUTER_BOUND ( 'NONE', #256, .T. ) ;
#111 = CARTESIAN_POINT ( 'NONE',  ( 0.000000000000000000, 0.000000000000000000, 25.00000000000000000 ) ) ;
#112 = EDGE_CURVE ( 'NONE', #228, #275, #88, .T. ) ;
#113 = CARTESIAN_POINT ( 'NONE',  ( -15.15000000000000036, 1.855339900708240019E-15, 25.00000000000000000 ) ) ;
#114 = CC_DESIGN_APPROVAL ( #50, ( #183 ) ) ;
#115 = DIRECTION ( 'NONE',  ( 1.000000000000000000, 0.000000000000000000, 0.000000000000000000 ) ) ;
#116 = CC_DESIGN_PERSON_AND_ORGANIZATION_ASSIGNMENT ( #239, #61, ( #183 ) ) ;
#117 = CARTESIAN_POINT ( 'NONE',  ( 0.000000000000000000, 0.000000000000000000, 0.000000000000000000 ) ) ;
#118 = CARTESIAN_POINT ( 'NONE',  ( 0.000000000000000000, 0.000000000000000000, 25.00000000000000000 ) ) ;
#119 = DESIGN_CONTEXT ( 'detailed design', #89, 'design' ) ;
#120 = AXIS2_PLACEMENT_3D ( 'NONE', #178, #71, #279 ) ;
#121 = CARTESIAN_POINT ( 'NONE',  ( 19.50000000000000000, 0.000000000000000000, 0.000000000000000000 ) ) ;
#122 = ORIENTED_EDGE ( 'NONE', *, *, #164, .F. ) ;
#123 = ORIENTED_EDGE ( 'NONE', *, *, #313, .F. ) ;
#124 = CARTESIAN_POINT ( 'NONE',  ( 0.000000000000000000, 0.000000000000000000, 25.00000000000000000 ) ) ;
#125 = CARTESIAN_POINT ( 'NONE',  ( -19.50000000000000000, 2.388061258337338939E-15, 0.000000000000000000 ) ) ;
#126 = CIRCLE ( 'NONE', #31, 19.50000000000000000 ) ;
#127 = APPROVAL_PERSON_ORGANIZATION ( #304, #301, #235 ) ;
#128 = EDGE_CURVE ( 'NONE', #217, #40, #299, .T. ) ;
#129 = ORIENTED_EDGE ( 'NONE', *, *, #208, .T. ) ;
#130 = COORDINATED_UNIVERSAL_TIME_OFFSET ( 1, 0, .AHEAD. ) ;
#131 = CC_DESIGN_APPROVAL ( #301, ( #78 ) ) ;
#132 = DATE_AND_TIME ( #28, #207 ) ;
#133 = PERSON_AND_ORGANIZATION_ROLE ( 'classification_officer' ) ;
#134 = CYLINDRICAL_SURFACE ( 'NONE', #158, 22.50000000000000355 ) ;
#135 = CIRCLE ( 'NONE', #166, 22.50000000000000355 ) ;
#136 = EDGE_CURVE ( 'NONE', #303, #217, #312, .T. ) ;
#137 = CIRCLE ( 'NONE', #120, 15.15000000000000036 ) ;
#138 = LINE ( 'NONE', #195, #284 ) ;
#139 = FACE_OUTER_BOUND ( 'NONE', #150, .T. ) ;
#140 = PERSON_AND_ORGANIZATION_ROLE ( 'design_supplier' ) ;
#141 = CARTESIAN_POINT ( 'NONE',  ( 0.000000000000000000, 0.000000000000000000, 0.000000000000000000 ) ) ;
#142 = CYLINDRICAL_SURFACE ( 'NONE', #224, 15.15000000000000036 ) ;
#143 = DIRECTION ( 'NONE',  ( 1.000000000000000000, 0.000000000000000000, -0.000000000000000000 ) ) ;
#144 = CARTESIAN_POINT ( 'NONE',  ( 0.000000000000000000, 0.000000000000000000, -2.000000000000000000 ) ) ;
#145 = ORIENTED_EDGE ( 'NONE', *, *, #313, .T. ) ;
#146 = AXIS2_PLACEMENT_3D ( 'NONE', #326, #223, #180 ) ;
#147 = ADVANCED_FACE ( 'NONE', ( #247 ), #142, .F. ) ;
#148 = MANIFOLD_SOLID_BREP ( 'Extrusion3', #193 ) ;
#149 = ORIENTED_EDGE ( 'NONE', *, *, #106, .T. ) ;
#150 = EDGE_LOOP ( 'NONE', ( #122, #24, #199, #221 ) ) ;
#151 = CYLINDRICAL_SURFACE ( 'NONE', #79, 19.50000000000000000 ) ;
#152 = ORIENTED_EDGE ( 'NONE', *, *, #291, .T. ) ;
#153 = ORIENTED_EDGE ( 'NONE', *, *, #54, .T. ) ;
#154 = DIRECTION ( 'NONE',  ( 1.000000000000000000, 0.000000000000000000, 0.000000000000000000 ) ) ;
#155 = DIRECTION ( 'NONE',  ( 1.000000000000000000, 0.000000000000000000, 0.000000000000000000 ) ) ;
#156 = AXIS2_PLACEMENT_3D ( 'NONE', #13, #33, #245 ) ;
#157 = ORIENTED_EDGE ( 'NONE', *, *, #222, .F. ) ;
#158 = AXIS2_PLACEMENT_3D ( 'NONE', #314, #86, #268 ) ;
#159 = DIRECTION ( 'NONE',  ( 0.000000000000000000, 0.000000000000000000, -1.000000000000000000 ) ) ;
#160 = DATE_AND_TIME ( #53, #62 ) ;
#161 = APPROVAL_STATUS ( 'not_yet_approved' ) ;
#162 = PLANE ( 'NONE',  #283 ) ;
#163 = EDGE_LOOP ( 'NONE', ( #309, #83, #149, #227 ) ) ;
#164 = EDGE_CURVE ( 'NONE', #303, #203, #182, .T. ) ;
#165 = CARTESIAN_POINT ( 'NONE',  ( -22.50000000000000355, 0.000000000000000000, 0.000000000000000000 ) ) ;
#166 = AXIS2_PLACEMENT_3D ( 'NONE', #289, #59, #264 ) ;
#167 = DIRECTION ( 'NONE',  ( 1.000000000000000000, 0.000000000000000000, 0.000000000000000000 ) ) ;
#168 = DIRECTION ( 'NONE',  ( -0.000000000000000000, -0.000000000000000000, -1.000000000000000000 ) ) ;
#169 = PRODUCT_DEFINITION_SHAPE ( 'NONE', 'NONE',  #78 ) ;
#170 = CARTESIAN_POINT ( 'NONE',  ( 19.50000000000000000, 0.000000000000000000, -2.000000000000000000 ) ) ;
#171 = ORIENTED_EDGE ( 'NONE', *, *, #69, .F. ) ;
#172 = CIRCLE ( 'NONE', #70, 15.15000000000000036 ) ;
#173 = CARTESIAN_POINT ( 'NONE',  ( 0.000000000000000000, 0.000000000000000000, 0.000000000000000000 ) ) ;
#174 = ORIENTED_EDGE ( 'NONE', *, *, #112, .T. ) ;
#175 = APPROVAL ( #242, 'UNSPECIFIED' ) ;
#176 = CARTESIAN_POINT ( 'NONE',  ( 22.50000000000000355, 2.755455298081545172E-15, 0.000000000000000000 ) ) ;
#177 = EDGE_CURVE ( 'NONE', #203, #303, #135, .T. ) ;
#178 = CARTESIAN_POINT ( 'NONE',  ( 0.000000000000000000, 0.000000000000000000, -2.000000000000000000 ) ) ;
#179 = ORIENTED_EDGE ( 'NONE', *, *, #136, .F. ) ;
#180 = DIRECTION ( 'NONE',  ( -1.000000000000000000, 0.000000000000000000, 0.000000000000000000 ) ) ;
#181 = CARTESIAN_POINT ( 'NONE',  ( 22.50000000000000355, 2.755455298081545172E-15, 25.00000000000000000 ) ) ;
#182 = CIRCLE ( 'NONE', #109, 22.50000000000000355 ) ;
#183 = PRODUCT_DEFINITION_FORMATION_WITH_SPECIFIED_SOURCE ( 'ANY', '', #293, .NOT_KNOWN. ) ;
#184 = CIRCLE ( 'NONE', #107, 22.50000000000000355 ) ;
#185 = PERSON_AND_ORGANIZATION_ROLE ( 'creator' ) ;
#186 = APPROVAL_PERSON_ORGANIZATION ( #11, #175, #1 ) ;
#187 = FACE_BOUND ( 'NONE', #250, .T. ) ;
#188 = ADVANCED_FACE ( 'NONE', ( #139 ), #248, .T. ) ;
#189 = DIRECTION ( 'NONE',  ( 1.000000000000000000, 0.000000000000000000, 0.000000000000000000 ) ) ;
#190 = DATE_AND_TIME ( #84, #231 ) ;
#191 = DIRECTION ( 'NONE',  ( -0.000000000000000000, -0.000000000000000000, 1.000000000000000000 ) ) ;
#192 = SHAPE_DEFINITION_REPRESENTATION ( #169, #105 ) ;
#193 = CLOSED_SHELL ( 'NONE', ( #234, #261, #188, #197, #41, #249, #80, #3, #147 ) ) ;
#194 = DIRECTION ( 'NONE',  ( 0.000000000000000000, 0.000000000000000000, 1.000000000000000000 ) ) ;
#195 = CARTESIAN_POINT ( 'NONE',  ( 19.50000000000000000, 0.000000000000000000, -2.000000000000000000 ) ) ;
#196 = DIRECTION ( 'NONE',  ( 0.000000000000000000, 0.000000000000000000, 1.000000000000000000 ) ) ;
#197 = ADVANCED_FACE ( 'NONE', ( #9, #216 ), #315, .F. ) ;
#198 = CARTESIAN_POINT ( 'NONE',  ( 0.000000000000000000, 0.000000000000000000, -2.000000000000000000 ) ) ;
#199 = ORIENTED_EDGE ( 'NONE', *, *, #128, .T. ) ;
#200 =( NAMED_UNIT ( * ) SI_UNIT ( $, .STERADIAN. ) SOLID_ANGLE_UNIT ( ) );
#201 = ORIENTED_EDGE ( 'NONE', *, *, #29, .F. ) ;
#202 = DIRECTION ( 'NONE',  ( 1.000000000000000000, 0.000000000000000000, 0.000000000000000000 ) ) ;
#203 = VERTEX_POINT ( 'NONE', #276 ) ;
#204 = CC_DESIGN_PERSON_AND_ORGANIZATION_ASSIGNMENT ( #311, #140, ( #183 ) ) ;
#205 = ORIENTED_EDGE ( 'NONE', *, *, #321, .F. ) ;
#206 = PERSON_AND_ORGANIZATION ( #213, #270 ) ;
#207 = LOCAL_TIME ( 8, 12, 31.00000000000000000, #262 ) ;
#208 = EDGE_CURVE ( 'NONE', #228, #229, #323, .T. ) ;
#209 = VERTEX_POINT ( 'NONE', #125 ) ;
#210 = APPROVAL_DATE_TIME ( #132, #50 ) ;
#211 = CIRCLE ( 'NONE', #265, 19.50000000000000000 ) ;
#212 = DIRECTION ( 'NONE',  ( -0.000000000000000000, -0.000000000000000000, 1.000000000000000000 ) ) ;
#213 = PERSON ( 'UNSPECIFIED', 'UNSPECIFIED', 'UNSPECIFIED', ('UNSPECIFIED'), ('UNSPECIFIED'), ('UNSPECIFIED') ) ;
#214 = CARTESIAN_POINT ( 'NONE',  ( -19.50000000000000000, 2.388061258337338939E-15, -2.000000000000000000 ) ) ;
#215 = APPROVAL_DATE_TIME ( #190, #175 ) ;
#216 = FACE_BOUND ( 'NONE', #318, .T. ) ;
#217 = VERTEX_POINT ( 'NONE', #176 ) ;
#218 = DIRECTION ( 'NONE',  ( -0.000000000000000000, -0.000000000000000000, 1.000000000000000000 ) ) ;
#219 = CC_DESIGN_PERSON_AND_ORGANIZATION_ASSIGNMENT ( #246, #133, ( #56 ) ) ;
#220 = CYLINDRICAL_SURFACE ( 'NONE', #34, 19.50000000000000000 ) ;
#221 = ORIENTED_EDGE ( 'NONE', *, *, #17, .F. ) ;
#222 = EDGE_CURVE ( 'NONE', #38, #209, #42, .T. ) ;
#223 = DIRECTION ( 'NONE',  ( 0.000000000000000000, 0.000000000000000000, -1.000000000000000000 ) ) ;
#224 = AXIS2_PLACEMENT_3D ( 'NONE', #30, #212, #36 ) ;
#225 = AXIS2_PLACEMENT_3D ( 'NONE', #111, #66, #115 ) ;
#226 = CARTESIAN_POINT ( 'NONE',  ( 15.15000000000000036, 0.000000000000000000, -2.000999999999999446 ) ) ;
#227 = ORIENTED_EDGE ( 'NONE', *, *, #54, .F. ) ;
#228 = VERTEX_POINT ( 'NONE', #272 ) ;
#229 = VERTEX_POINT ( 'NONE', #96 ) ;
#230 = ORIENTED_EDGE ( 'NONE', *, *, #93, .T. ) ;
#231 = LOCAL_TIME ( 8, 12, 31.00000000000000000, #6 ) ;
#232 = CARTESIAN_POINT ( 'NONE',  ( -19.50000000000000000, 2.388061258337338939E-15, -2.000000000000000000 ) ) ;
#233 = APPLICATION_PROTOCOL_DEFINITION ( 'international standard', 'config_control_design', 1994, #89 ) ;
#234 = ADVANCED_FACE ( 'NONE', ( #44 ), #302, .F. ) ;
#235 = APPROVAL_ROLE ( '' ) ;
#236 = CIRCLE ( 'NONE', #25, 19.50000000000000000 ) ;
#237 = COORDINATED_UNIVERSAL_TIME_OFFSET ( 1, 0, .AHEAD. ) ;
#238 = ORIENTED_EDGE ( 'NONE', *, *, #282, .F. ) ;
#239 = PERSON_AND_ORGANIZATION ( #213, #270 ) ;
#240 = DIRECTION ( 'NONE',  ( 1.000000000000000000, 0.000000000000000000, 0.000000000000000000 ) ) ;
#241 = VECTOR ( 'NONE', #269, 1000.000000000000000 ) ;
#242 = APPROVAL_STATUS ( 'not_yet_approved' ) ;
#243 = DIRECTION ( 'NONE',  ( -1.000000000000000000, 0.000000000000000000, -0.000000000000000000 ) ) ;
#244 = COORDINATED_UNIVERSAL_TIME_OFFSET ( 1, 0, .AHEAD. ) ;
#245 = DIRECTION ( 'NONE',  ( -1.000000000000000000, 0.000000000000000000, 0.000000000000000000 ) ) ;
#246 = PERSON_AND_ORGANIZATION ( #213, #270 ) ;
#247 = FACE_OUTER_BOUND ( 'NONE', #288, .T. ) ;
#248 = CYLINDRICAL_SURFACE ( 'NONE', #156, 22.50000000000000355 ) ;
#249 = ADVANCED_FACE ( 'NONE', ( #257, #95 ), #23, .T. ) ;
#250 = EDGE_LOOP ( 'NONE', ( #174, #145 ) ) ;
#251 = CARTESIAN_POINT ( 'NONE',  ( -15.15000000000000036, 1.855339900708240019E-15, -2.000000000000000000 ) ) ;
#252 = CC_DESIGN_SECURITY_CLASSIFICATION ( #56, ( #183 ) ) ;
#253 = ORIENTED_EDGE ( 'NONE', *, *, #29, .T. ) ;
#254 = DIRECTION ( 'NONE',  ( -0.000000000000000000, -0.000000000000000000, 1.000000000000000000 ) ) ;
#255 = ORIENTED_EDGE ( 'NONE', *, *, #128, .F. ) ;
#256 = EDGE_LOOP ( 'NONE', ( #157, #263, #153, #273 ) ) ;
#257 = FACE_BOUND ( 'NONE', #91, .T. ) ;
#258 = EDGE_LOOP ( 'NONE', ( #171, #255 ) ) ;
#259 = AXIS2_PLACEMENT_3D ( 'NONE', #141, #64, #63 ) ;
#260 = MECHANICAL_CONTEXT ( 'NONE', #60, 'mechanical' ) ;
#261 = ADVANCED_FACE ( 'NONE', ( #73 ), #151, .T. ) ;
#262 = COORDINATED_UNIVERSAL_TIME_OFFSET ( 1, 0, .AHEAD. ) ;
#263 = ORIENTED_EDGE ( 'NONE', *, *, #291, .F. ) ;
#264 = DIRECTION ( 'NONE',  ( 1.000000000000000000, 0.000000000000000000, 0.000000000000000000 ) ) ;
#265 = AXIS2_PLACEMENT_3D ( 'NONE', #198, #18, #43 ) ;
#266 = EDGE_CURVE ( 'NONE', #38, #22, #328, .T. ) ;
#267 = LINE ( 'NONE', #292, #2 ) ;
#268 = DIRECTION ( 'NONE',  ( -1.000000000000000000, 0.000000000000000000, 0.000000000000000000 ) ) ;
#269 = DIRECTION ( 'NONE',  ( -0.000000000000000000, -0.000000000000000000, -1.000000000000000000 ) ) ;
#270 = ORGANIZATION ( 'UNSPECIFIED', 'UNSPECIFIED', '' ) ;
#271 = VECTOR ( 'NONE', #37, 1000.000000000000000 ) ;
#272 = CARTESIAN_POINT ( 'NONE',  ( 15.15000000000000036, 0.000000000000000000, -2.000000000000000000 ) ) ;
#273 = ORIENTED_EDGE ( 'NONE', *, *, #282, .T. ) ;
#274 = DIRECTION ( 'NONE',  ( -0.000000000000000000, -0.000000000000000000, 1.000000000000000000 ) ) ;
#275 = VERTEX_POINT ( 'NONE', #251 ) ;
#276 = CARTESIAN_POINT ( 'NONE',  ( -22.50000000000000355, 0.000000000000000000, 25.00000000000000000 ) ) ;
#277 = DIRECTION ( 'NONE',  ( -0.000000000000000000, -0.000000000000000000, -1.000000000000000000 ) ) ;
#278 = ORIENTED_EDGE ( 'NONE', *, *, #164, .T. ) ;
#279 = DIRECTION ( 'NONE',  ( -1.000000000000000000, 0.000000000000000000, 0.000000000000000000 ) ) ;
#280 = CALENDAR_DATE ( 2022, 1, 7 ) ;
#281 = CARTESIAN_POINT ( 'NONE',  ( 0.000000000000000000, 0.000000000000000000, 0.000000000000000000 ) ) ;
#282 = EDGE_CURVE ( 'NONE', #307, #209, #126, .T. ) ;
#283 = AXIS2_PLACEMENT_3D ( 'NONE', #51, #159, #243 ) ;
#284 = VECTOR ( 'NONE', #218, 1000.000000000000000 ) ;
#285 = ORIENTED_EDGE ( 'NONE', *, *, #266, .T. ) ;
#286 = ORIENTED_EDGE ( 'NONE', *, *, #112, .F. ) ;
#287 = DATE_TIME_ROLE ( 'creation_date' ) ;
#288 = EDGE_LOOP ( 'NONE', ( #45, #286, #129, #253 ) ) ;
#289 = CARTESIAN_POINT ( 'NONE',  ( 0.000000000000000000, 0.000000000000000000, 25.00000000000000000 ) ) ;
#290 = ORIENTED_EDGE ( 'NONE', *, *, #17, .T. ) ;
#291 = EDGE_CURVE ( 'NONE', #22, #38, #211, .T. ) ;
#292 = CARTESIAN_POINT ( 'NONE',  ( -15.15000000000000036, 1.855339900708240019E-15, -2.000999999999999446 ) ) ;
#293 = PRODUCT ( 'R4-005', 'R4-005', '', ( #260 ) ) ;
#294 = AXIS2_PLACEMENT_3D ( 'NONE', #39, #254, #154 ) ;
#295 = DIRECTION ( 'NONE',  ( 1.000000000000000000, 0.000000000000000000, -0.000000000000000000 ) ) ;
#296 = DATE_TIME_ROLE ( 'classification_date' ) ;
#297 = FACE_OUTER_BOUND ( 'NONE', #52, .T. ) ;
#298 = CARTESIAN_POINT ( 'NONE',  ( -22.50000000000000355, 0.000000000000000000, 25.00000000000000000 ) ) ;
#299 = CIRCLE ( 'NONE', #259, 22.50000000000000355 ) ;
#300 = DIRECTION ( 'NONE',  ( 1.000000000000000000, 0.000000000000000000, 0.000000000000000000 ) ) ;
#301 = APPROVAL ( #82, 'UNSPECIFIED' ) ;
#302 = CYLINDRICAL_SURFACE ( 'NONE', #294, 15.15000000000000036 ) ;
#303 = VERTEX_POINT ( 'NONE', #181 ) ;
#304 = PERSON_AND_ORGANIZATION ( #213, #270 ) ;
#305 = CC_DESIGN_PERSON_AND_ORGANIZATION_ASSIGNMENT ( #325, #27, ( #293 ) ) ;
#306 = PERSON_AND_ORGANIZATION ( #213, #270 ) ;
#307 = VERTEX_POINT ( 'NONE', #121 ) ;
#308 = APPROVAL_DATE_TIME ( #160, #301 ) ;
#309 = ORIENTED_EDGE ( 'NONE', *, *, #266, .F. ) ;
#310 = AXIS2_PLACEMENT_3D ( 'NONE', #118, #21, #143 ) ;
#311 = PERSON_AND_ORGANIZATION ( #213, #270 ) ;
#312 = LINE ( 'NONE', #35, #271 ) ;
#313 = EDGE_CURVE ( 'NONE', #275, #228, #137, .T. ) ;
#314 = CARTESIAN_POINT ( 'NONE',  ( 0.000000000000000000, 0.000000000000000000, 25.00000000000000000 ) ) ;
#315 = PLANE ( 'NONE',  #19 ) ;
#316 = CARTESIAN_POINT ( 'NONE',  ( 0.000000000000000000, 0.000000000000000000, -2.000000000000000000 ) ) ;
#317 = DIRECTION ( 'NONE',  ( -0.000000000000000000, -0.000000000000000000, 1.000000000000000000 ) ) ;
#318 = EDGE_LOOP ( 'NONE', ( #238, #98 ) ) ;
#319 = CIRCLE ( 'NONE', #225, 15.15000000000000036 ) ;
#320 =( NAMED_UNIT ( * ) PLANE_ANGLE_UNIT ( ) SI_UNIT ( $, .RADIAN. ) );
#321 = EDGE_CURVE ( 'NONE', #55, #229, #172, .T. ) ;
#322 = EDGE_LOOP ( 'NONE', ( #68, #278 ) ) ;
#323 = LINE ( 'NONE', #226, #5 ) ;
#324 = EDGE_LOOP ( 'NONE', ( #123, #230, #75, #76 ) ) ;
#325 = PERSON_AND_ORGANIZATION ( #213, #270 ) ;
#326 = CARTESIAN_POINT ( 'NONE',  ( 0.000000000000000000, 0.000000000000000000, -2.000000000000000000 ) ) ;
#327 = DATE_AND_TIME ( #280, #100 ) ;
#328 = CIRCLE ( 'NONE', #146, 19.50000000000000000 ) ;
#329 = LOCAL_TIME ( 8, 12, 31.00000000000000000, #244 ) ;
ENDSEC;
END-ISO-10303-21;
