ISO-10303-21;
HEADER;
FILE_DESCRIPTION (( 'STEP AP203' ),
    '1' );
FILE_NAME ('R4-006.STEP',
    '2022-07-01T06:13:23',
    ( '' ),
    ( '' ),
    'SwSTEP 2.0',
    'SolidWorks 2022',
    '' );
FILE_SCHEMA (( 'CONFIG_CONTROL_DESIGN' ));
ENDSEC;

DATA;
#1 = ADVANCED_FACE ( 'NONE', ( #322 ), #41, .T. ) ;
#2 = CARTESIAN_POINT ( 'NONE',  ( 0.000000000000000000, 0.000000000000000000, -3.000000000000000000 ) ) ;
#3 = VERTEX_POINT ( 'NONE', #299 ) ;
#4 = FACE_OUTER_BOUND ( 'NONE', #85, .T. ) ;
#5 = FACE_OUTER_BOUND ( 'NONE', #113, .T. ) ;
#6 = PERSON_AND_ORGANIZATION ( #84, #198 ) ;
#7 = ORIENTED_EDGE ( 'NONE', *, *, #262, .T. ) ;
#8 = EDGE_CURVE ( 'NONE', #39, #267, #190, .T. ) ;
#9 = DATE_AND_TIME ( #86, #90 ) ;
#10 = ORIENTED_EDGE ( 'NONE', *, *, #282, .T. ) ;
#11 = ORIENTED_EDGE ( 'NONE', *, *, #300, .T. ) ;
#12 = COORDINATED_UNIVERSAL_TIME_OFFSET ( 1, 0, .AHEAD. ) ;
#13 = ORIENTED_EDGE ( 'NONE', *, *, #282, .F. ) ;
#14 = AXIS2_PLACEMENT_3D ( 'NONE', #182, #325, #207 ) ;
#15 = APPLICATION_PROTOCOL_DEFINITION ( 'international standard', 'config_control_design', 1994, #138 ) ;
#16 = ORIENTED_EDGE ( 'NONE', *, *, #236, .F. ) ;
#17 = ADVANCED_FACE ( 'NONE', ( #47 ), #94, .T. ) ;
#18 = DIRECTION ( 'NONE',  ( 0.000000000000000000, 0.000000000000000000, 1.000000000000000000 ) ) ;
#19 = FACE_BOUND ( 'NONE', #244, .T. ) ;
#20 = AXIS2_PLACEMENT_3D ( 'NONE', #123, #18, #255 ) ;
#21 = ADVANCED_FACE ( 'NONE', ( #257, #19 ), #50, .F. ) ;
#22 = AXIS2_PLACEMENT_3D ( 'NONE', #2, #215, #285 ) ;
#23 = CYLINDRICAL_SURFACE ( 'NONE', #173, 19.50000000000000000 ) ;
#24 = DIRECTION ( 'NONE',  ( -0.000000000000000000, -0.000000000000000000, -1.000000000000000000 ) ) ;
#25 = DIRECTION ( 'NONE',  ( 1.000000000000000000, 0.000000000000000000, 0.000000000000000000 ) ) ;
#26 = PLANE ( 'NONE',  #205 ) ;
#27 = PRODUCT_DEFINITION ( 'UNKNOWN', '', #128, #63 ) ;
#28 =( NAMED_UNIT ( * ) SI_UNIT ( $, .STERADIAN. ) SOLID_ANGLE_UNIT ( ) );
#29 = VERTEX_POINT ( 'NONE', #327 ) ;
#30 = DIRECTION ( 'NONE',  ( 1.000000000000000000, 0.000000000000000000, 0.000000000000000000 ) ) ;
#31 = PRODUCT_RELATED_PRODUCT_CATEGORY ( 'detail', '', ( #95 ) ) ;
#32 = DIRECTION ( 'NONE',  ( 1.000000000000000000, 0.000000000000000000, 0.000000000000000000 ) ) ;
#33 = DIRECTION ( 'NONE',  ( 1.000000000000000000, 0.000000000000000000, 0.000000000000000000 ) ) ;
#34 = ORIENTED_EDGE ( 'NONE', *, *, #216, .F. ) ;
#35 = PERSON_AND_ORGANIZATION ( #84, #198 ) ;
#36 = VERTEX_POINT ( 'NONE', #51 ) ;
#37 = VECTOR ( 'NONE', #52, 1000.000000000000000 ) ;
#38 = APPROVAL_DATE_TIME ( #220, #164 ) ;
#39 = VERTEX_POINT ( 'NONE', #209 ) ;
#40 = PERSON_AND_ORGANIZATION ( #84, #198 ) ;
#41 = CYLINDRICAL_SURFACE ( 'NONE', #213, 27.50000000000000000 ) ;
#42 = ORIENTED_EDGE ( 'NONE', *, *, #206, .F. ) ;
#43 = AXIS2_PLACEMENT_3D ( 'NONE', #98, #24, #148 ) ;
#44 = ORIENTED_EDGE ( 'NONE', *, *, #73, .F. ) ;
#45 = DIRECTION ( 'NONE',  ( 1.000000000000000000, 0.000000000000000000, -0.000000000000000000 ) ) ;
#46 = ADVANCED_FACE ( 'NONE', ( #175 ), #96, .F. ) ;
#47 = FACE_OUTER_BOUND ( 'NONE', #65, .T. ) ;
#48 = CIRCLE ( 'NONE', #280, 19.50000000000000000 ) ;
#49 = APPROVAL_PERSON_ORGANIZATION ( #61, #164, #249 ) ;
#50 = PLANE ( 'NONE',  #20 ) ;
#51 = CARTESIAN_POINT ( 'NONE',  ( -24.00000000000000355, 2.939152317953648289E-15, -3.000000000000000000 ) ) ;
#52 = DIRECTION ( 'NONE',  ( -0.000000000000000000, -0.000000000000000000, 1.000000000000000000 ) ) ;
#53 = FACE_BOUND ( 'NONE', #87, .T. ) ;
#54 = CARTESIAN_POINT ( 'NONE',  ( 0.000000000000000000, 0.000000000000000000, 0.000000000000000000 ) ) ;
#55 = APPLICATION_CONTEXT ( 'configuration controlled 3d designs of mechanical parts and assemblies' ) ;
#56 = CALENDAR_DATE ( 2022, 1, 7 ) ;
#57 = ADVANCED_FACE ( 'NONE', ( #69 ), #146, .T. ) ;
#58 = ORIENTED_EDGE ( 'NONE', *, *, #73, .T. ) ;
#59 = APPROVAL_ROLE ( '' ) ;
#60 = ORIENTED_EDGE ( 'NONE', *, *, #277, .T. ) ;
#61 = PERSON_AND_ORGANIZATION ( #84, #198 ) ;
#62 = ORIENTED_EDGE ( 'NONE', *, *, #125, .T. ) ;
#63 = DESIGN_CONTEXT ( 'detailed design', #138, 'design' ) ;
#64 = DIRECTION ( 'NONE',  ( 0.000000000000000000, 0.000000000000000000, 1.000000000000000000 ) ) ;
#65 = EDGE_LOOP ( 'NONE', ( #246, #169, #60, #316 ) ) ;
#66 = ADVANCED_FACE ( 'NONE', ( #305 ), #23, .F. ) ;
#67 = DIRECTION ( 'NONE',  ( 0.000000000000000000, 0.000000000000000000, 1.000000000000000000 ) ) ;
#68 = CARTESIAN_POINT ( 'NONE',  ( 0.000000000000000000, 0.000000000000000000, -3.000000000000000000 ) ) ;
#69 = FACE_OUTER_BOUND ( 'NONE', #202, .T. ) ;
#70 = LOCAL_TIME ( 8, 13, 23.00000000000000000, #109 ) ;
#71 = CIRCLE ( 'NONE', #260, 27.50000000000000000 ) ;
#72 = FACE_BOUND ( 'NONE', #163, .T. ) ;
#73 = EDGE_CURVE ( 'NONE', #273, #222, #219, .T. ) ;
#74 = CARTESIAN_POINT ( 'NONE',  ( 0.000000000000000000, 0.000000000000000000, -3.001000000000000334 ) ) ;
#75 = DIRECTION ( 'NONE',  ( -0.000000000000000000, -0.000000000000000000, 1.000000000000000000 ) ) ;
#76 = ORIENTED_EDGE ( 'NONE', *, *, #119, .F. ) ;
#77 = DIRECTION ( 'NONE',  ( 1.000000000000000000, 0.000000000000000000, 0.000000000000000000 ) ) ;
#78 = EDGE_CURVE ( 'NONE', #267, #39, #256, .T. ) ;
#79 = CIRCLE ( 'NONE', #268, 24.00000000000000355 ) ;
#80 = LINE ( 'NONE', #261, #281 ) ;
#81 = MANIFOLD_SOLID_BREP ( 'Extrusion3', #265 ) ;
#82 = DIRECTION ( 'NONE',  ( 1.000000000000000000, 0.000000000000000000, 0.000000000000000000 ) ) ;
#83 = COORDINATED_UNIVERSAL_TIME_OFFSET ( 1, 0, .AHEAD. ) ;
#84 = PERSON ( 'UNSPECIFIED', 'UNSPECIFIED', 'UNSPECIFIED', ('UNSPECIFIED'), ('UNSPECIFIED'), ('UNSPECIFIED') ) ;
#85 = EDGE_LOOP ( 'NONE', ( #34, #318, #88, #11 ) ) ;
#86 = CALENDAR_DATE ( 2022, 1, 7 ) ;
#87 = EDGE_LOOP ( 'NONE', ( #250, #58 ) ) ;
#88 = ORIENTED_EDGE ( 'NONE', *, *, #136, .T. ) ;
#89 = CC_DESIGN_PERSON_AND_ORGANIZATION_ASSIGNMENT ( #40, #165, ( #128 ) ) ;
#90 = LOCAL_TIME ( 8, 13, 23.00000000000000000, #247 ) ;
#91 = ORIENTED_EDGE ( 'NONE', *, *, #8, .F. ) ;
#92 = PERSON_AND_ORGANIZATION ( #84, #198 ) ;
#93 = CARTESIAN_POINT ( 'NONE',  ( 0.000000000000000000, 0.000000000000000000, 25.00000000000000000 ) ) ;
#94 = CYLINDRICAL_SURFACE ( 'NONE', #154, 24.00000000000000355 ) ;
#95 = PRODUCT ( 'R4-006', 'R4-006', '', ( #133 ) ) ;
#96 = CYLINDRICAL_SURFACE ( 'NONE', #301, 19.50000000000000000 ) ;
#97 = CARTESIAN_POINT ( 'NONE',  ( 0.000000000000000000, 0.000000000000000000, -3.000000000000000000 ) ) ;
#98 = CARTESIAN_POINT ( 'NONE',  ( 0.000000000000000000, 0.000000000000000000, 25.00000000000000000 ) ) ;
#99 = DIRECTION ( 'NONE',  ( -0.000000000000000000, -0.000000000000000000, 1.000000000000000000 ) ) ;
#100 = DIRECTION ( 'NONE',  ( 0.000000000000000000, 0.000000000000000000, 1.000000000000000000 ) ) ;
#101 = SECURITY_CLASSIFICATION ( '', '', #199 ) ;
#102 = CYLINDRICAL_SURFACE ( 'NONE', #22, 24.00000000000000355 ) ;
#103 =( GEOMETRIC_REPRESENTATION_CONTEXT ( 3 ) GLOBAL_UNCERTAINTY_ASSIGNED_CONTEXT ( ( #117 ) ) GLOBAL_UNIT_ASSIGNED_CONTEXT ( ( #217, #188, #28 ) ) REPRESENTATION_CONTEXT ( 'NONE', 'WORKASPACE' ) );
#104 = CARTESIAN_POINT ( 'NONE',  ( 24.00000000000000355, 0.000000000000000000, -3.000000000000000000 ) ) ;
#105 = DATE_AND_TIME ( #320, #149 ) ;
#106 = ORIENTED_EDGE ( 'NONE', *, *, #231, .F. ) ;
#107 = AXIS2_PLACEMENT_3D ( 'NONE', #54, #287, #30 ) ;
#108 = VECTOR ( 'NONE', #259, 1000.000000000000000 ) ;
#109 = COORDINATED_UNIVERSAL_TIME_OFFSET ( 1, 0, .AHEAD. ) ;
#110 = EDGE_LOOP ( 'NONE', ( #44, #10, #297, #106 ) ) ;
#111 = EDGE_CURVE ( 'NONE', #36, #272, #324, .T. ) ;
#112 = PERSON_AND_ORGANIZATION_ROLE ( 'classification_officer' ) ;
#113 = EDGE_LOOP ( 'NONE', ( #191, #319 ) ) ;
#114 = PERSON_AND_ORGANIZATION ( #84, #198 ) ;
#115 = DIRECTION ( 'NONE',  ( -0.000000000000000000, -0.000000000000000000, -1.000000000000000000 ) ) ;
#116 = ORIENTED_EDGE ( 'NONE', *, *, #236, .T. ) ;
#117 = UNCERTAINTY_MEASURE_WITH_UNIT (LENGTH_MEASURE( 1.000000000000000082E-05 ), #217, 'distance_accuracy_value', 'NONE');
#118 = CARTESIAN_POINT ( 'NONE',  ( 0.000000000000000000, 0.000000000000000000, -3.000000000000000000 ) ) ;
#119 = EDGE_CURVE ( 'NONE', #298, #166, #48, .T. ) ;
#120 = CC_DESIGN_SECURITY_CLASSIFICATION ( #101, ( #128 ) ) ;
#121 = LINE ( 'NONE', #124, #180 ) ;
#122 = DIRECTION ( 'NONE',  ( -0.000000000000000000, -0.000000000000000000, 1.000000000000000000 ) ) ;
#123 = CARTESIAN_POINT ( 'NONE',  ( 0.000000000000000000, 0.000000000000000000, 0.000000000000000000 ) ) ;
#124 = CARTESIAN_POINT ( 'NONE',  ( -27.50000000000000000, 0.000000000000000000, 25.00000000000000000 ) ) ;
#125 = EDGE_CURVE ( 'NONE', #3, #226, #71, .T. ) ;
#126 = CARTESIAN_POINT ( 'NONE',  ( 0.000000000000000000, 0.000000000000000000, 25.00000000000000000 ) ) ;
#127 = CARTESIAN_POINT ( 'NONE',  ( -19.50000000000000000, 2.388061258337338939E-15, -3.001000000000000334 ) ) ;
#128 = PRODUCT_DEFINITION_FORMATION_WITH_SPECIFIED_SOURCE ( 'ANY', '', #95, .NOT_KNOWN. ) ;
#129 = LINE ( 'NONE', #127, #37 ) ;
#130 = LOCAL_TIME ( 8, 13, 23.00000000000000000, #12 ) ;
#131 = ADVANCED_FACE ( 'NONE', ( #72, #181 ), #251, .T. ) ;
#132 = SHAPE_DEFINITION_REPRESENTATION ( #151, #310 ) ;
#133 = MECHANICAL_CONTEXT ( 'NONE', #55, 'mechanical' ) ;
#134 = EDGE_LOOP ( 'NONE', ( #144, #16 ) ) ;
#135 = CIRCLE ( 'NONE', #184, 24.00000000000000355 ) ;
#136 = EDGE_CURVE ( 'NONE', #272, #29, #253, .T. ) ;
#137 = APPROVAL_ROLE ( '' ) ;
#138 = APPLICATION_CONTEXT ( 'configuration controlled 3d designs of mechanical parts and assemblies' ) ;
#139 = ORIENTED_EDGE ( 'NONE', *, *, #277, .F. ) ;
#140 = DATE_AND_TIME ( #56, #254 ) ;
#141 = ORIENTED_EDGE ( 'NONE', *, *, #78, .T. ) ;
#142 = APPROVAL_PERSON_ORGANIZATION ( #6, #252, #59 ) ;
#143 = PERSON_AND_ORGANIZATION ( #84, #198 ) ;
#144 = ORIENTED_EDGE ( 'NONE', *, *, #125, .F. ) ;
#145 = CIRCLE ( 'NONE', #14, 24.00000000000000355 ) ;
#146 = CYLINDRICAL_SURFACE ( 'NONE', #43, 27.50000000000000000 ) ;
#147 = DIRECTION ( 'NONE',  ( -1.000000000000000000, 0.000000000000000000, 0.000000000000000000 ) ) ;
#148 = DIRECTION ( 'NONE',  ( -1.000000000000000000, 0.000000000000000000, 0.000000000000000000 ) ) ;
#149 = LOCAL_TIME ( 8, 13, 23.00000000000000000, #271 ) ;
#150 = AXIS2_PLACEMENT_3D ( 'NONE', #211, #309, #77 ) ;
#151 = PRODUCT_DEFINITION_SHAPE ( 'NONE', 'NONE',  #27 ) ;
#152 = DIRECTION ( 'NONE',  ( -0.000000000000000000, -0.000000000000000000, 1.000000000000000000 ) ) ;
#153 = CARTESIAN_POINT ( 'NONE',  ( 24.00000000000000355, 0.000000000000000000, -3.000000000000000000 ) ) ;
#154 = AXIS2_PLACEMENT_3D ( 'NONE', #326, #230, #302 ) ;
#155 = AXIS2_PLACEMENT_3D ( 'NONE', #304, #67, #208 ) ;
#156 = CC_DESIGN_PERSON_AND_ORGANIZATION_ASSIGNMENT ( #195, #317, ( #27 ) ) ;
#157 = DIRECTION ( 'NONE',  ( -0.000000000000000000, -0.000000000000000000, -1.000000000000000000 ) ) ;
#158 = CARTESIAN_POINT ( 'NONE',  ( -24.00000000000000355, 2.939152317953648289E-15, -3.000000000000000000 ) ) ;
#159 = EDGE_CURVE ( 'NONE', #39, #3, #121, .T. ) ;
#160 = AXIS2_PLACEMENT_3D ( 'NONE', #323, #283, #45 ) ;
#161 = APPROVAL_STATUS ( 'not_yet_approved' ) ;
#162 = CALENDAR_DATE ( 2022, 1, 7 ) ;
#163 = EDGE_LOOP ( 'NONE', ( #172, #76 ) ) ;
#164 = APPROVAL ( #315, 'UNSPECIFIED' ) ;
#165 = PERSON_AND_ORGANIZATION_ROLE ( 'creator' ) ;
#166 = VERTEX_POINT ( 'NONE', #328 ) ;
#167 = VECTOR ( 'NONE', #75, 1000.000000000000000 ) ;
#168 = PERSON_AND_ORGANIZATION_ROLE ( 'design_owner' ) ;
#169 = ORIENTED_EDGE ( 'NONE', *, *, #216, .T. ) ;
#170 = DIRECTION ( 'NONE',  ( 1.000000000000000000, 0.000000000000000000, 0.000000000000000000 ) ) ;
#171 = CC_DESIGN_PERSON_AND_ORGANIZATION_ASSIGNMENT ( #114, #112, ( #101 ) ) ;
#172 = ORIENTED_EDGE ( 'NONE', *, *, #223, .F. ) ;
#173 = AXIS2_PLACEMENT_3D ( 'NONE', #74, #122, #234 ) ;
#174 = CIRCLE ( 'NONE', #221, 19.50000000000000000 ) ;
#175 = FACE_OUTER_BOUND ( 'NONE', #274, .T. ) ;
#176 = DIRECTION ( 'NONE',  ( -0.000000000000000000, -0.000000000000000000, 1.000000000000000000 ) ) ;
#177 = CC_DESIGN_PERSON_AND_ORGANIZATION_ASSIGNMENT ( #92, #224, ( #128 ) ) ;
#178 = DIRECTION ( 'NONE',  ( 0.000000000000000000, 0.000000000000000000, -1.000000000000000000 ) ) ;
#179 = AXIS2_PLACEMENT_3D ( 'NONE', #228, #64, #170 ) ;
#180 = VECTOR ( 'NONE', #232, 1000.000000000000000 ) ;
#181 = FACE_OUTER_BOUND ( 'NONE', #321, .T. ) ;
#182 = CARTESIAN_POINT ( 'NONE',  ( 0.000000000000000000, 0.000000000000000000, -3.000000000000000000 ) ) ;
#183 = CARTESIAN_POINT ( 'NONE',  ( 0.000000000000000000, 0.000000000000000000, 0.000000000000000000 ) ) ;
#184 = AXIS2_PLACEMENT_3D ( 'NONE', #183, #186, #32 ) ;
#185 = DIRECTION ( 'NONE',  ( -0.000000000000000000, -0.000000000000000000, -1.000000000000000000 ) ) ;
#186 = DIRECTION ( 'NONE',  ( -0.000000000000000000, -0.000000000000000000, -1.000000000000000000 ) ) ;
#187 = CC_DESIGN_PERSON_AND_ORGANIZATION_ASSIGNMENT ( #143, #168, ( #95 ) ) ;
#188 =( NAMED_UNIT ( * ) PLANE_ANGLE_UNIT ( ) SI_UNIT ( $, .RADIAN. ) );
#189 = CC_DESIGN_APPROVAL ( #252, ( #128 ) ) ;
#190 = CIRCLE ( 'NONE', #179, 27.50000000000000000 ) ;
#191 = ORIENTED_EDGE ( 'NONE', *, *, #201, .T. ) ;
#192 = APPROVAL ( #193, 'UNSPECIFIED' ) ;
#193 = APPROVAL_STATUS ( 'not_yet_approved' ) ;
#194 = ORIENTED_EDGE ( 'NONE', *, *, #262, .F. ) ;
#195 = PERSON_AND_ORGANIZATION ( #84, #198 ) ;
#196 = ORIENTED_EDGE ( 'NONE', *, *, #223, .T. ) ;
#197 = VERTEX_POINT ( 'NONE', #307 ) ;
#198 = ORGANIZATION ( 'UNSPECIFIED', 'UNSPECIFIED', '' ) ;
#199 = SECURITY_CLASSIFICATION_LEVEL ( 'unclassified' ) ;
#200 = DIRECTION ( 'NONE',  ( -1.000000000000000000, 0.000000000000000000, 0.000000000000000000 ) ) ;
#201 = EDGE_CURVE ( 'NONE', #272, #36, #145, .T. ) ;
#202 = EDGE_LOOP ( 'NONE', ( #194, #91, #248, #62 ) ) ;
#203 = DIRECTION ( 'NONE',  ( 0.000000000000000000, 0.000000000000000000, 1.000000000000000000 ) ) ;
#204 = AXIS2_PLACEMENT_3D ( 'NONE', #118, #178, #147 ) ;
#205 = AXIS2_PLACEMENT_3D ( 'NONE', #314, #311, #308 ) ;
#206 = EDGE_CURVE ( 'NONE', #222, #273, #329, .T. ) ;
#207 = DIRECTION ( 'NONE',  ( -1.000000000000000000, 0.000000000000000000, 0.000000000000000000 ) ) ;
#208 = DIRECTION ( 'NONE',  ( 1.000000000000000000, 0.000000000000000000, 0.000000000000000000 ) ) ;
#209 = CARTESIAN_POINT ( 'NONE',  ( -27.50000000000000000, 0.000000000000000000, 25.00000000000000000 ) ) ;
#210 = DIRECTION ( 'NONE',  ( 0.000000000000000000, 0.000000000000000000, 1.000000000000000000 ) ) ;
#211 = CARTESIAN_POINT ( 'NONE',  ( 0.000000000000000000, 0.000000000000000000, 0.000000000000000000 ) ) ;
#212 = CARTESIAN_POINT ( 'NONE',  ( 27.50000000000000000, 3.367778697655221307E-15, 0.000000000000000000 ) ) ;
#213 = AXIS2_PLACEMENT_3D ( 'NONE', #93, #115, #200 ) ;
#214 = CC_DESIGN_APPROVAL ( #164, ( #27 ) ) ;
#215 = DIRECTION ( 'NONE',  ( -0.000000000000000000, -0.000000000000000000, 1.000000000000000000 ) ) ;
#216 = EDGE_CURVE ( 'NONE', #36, #197, #263, .T. ) ;
#217 =( LENGTH_UNIT ( ) NAMED_UNIT ( * ) SI_UNIT ( .MILLI., .METRE. ) );
#218 = CARTESIAN_POINT ( 'NONE',  ( 19.50000000000000000, 0.000000000000000000, -3.000000000000000000 ) ) ;
#219 = CIRCLE ( 'NONE', #296, 19.50000000000000000 ) ;
#220 = DATE_AND_TIME ( #162, #130 ) ;
#221 = AXIS2_PLACEMENT_3D ( 'NONE', #126, #100, #33 ) ;
#222 = VERTEX_POINT ( 'NONE', #218 ) ;
#223 = EDGE_CURVE ( 'NONE', #166, #298, #174, .T. ) ;
#224 = PERSON_AND_ORGANIZATION_ROLE ( 'design_supplier' ) ;
#225 = EDGE_LOOP ( 'NONE', ( #270, #7, #116, #291 ) ) ;
#226 = VERTEX_POINT ( 'NONE', #212 ) ;
#227 = APPROVAL_PERSON_ORGANIZATION ( #35, #192, #137 ) ;
#228 = CARTESIAN_POINT ( 'NONE',  ( 0.000000000000000000, 0.000000000000000000, 25.00000000000000000 ) ) ;
#229 = ORIENTED_EDGE ( 'NONE', *, *, #231, .T. ) ;
#230 = DIRECTION ( 'NONE',  ( -0.000000000000000000, -0.000000000000000000, 1.000000000000000000 ) ) ;
#231 = EDGE_CURVE ( 'NONE', #222, #166, #238, .T. ) ;
#232 = DIRECTION ( 'NONE',  ( -0.000000000000000000, -0.000000000000000000, -1.000000000000000000 ) ) ;
#233 = CARTESIAN_POINT ( 'NONE',  ( 0.000000000000000000, 0.000000000000000000, -3.001000000000000334 ) ) ;
#234 = DIRECTION ( 'NONE',  ( 1.000000000000000000, 0.000000000000000000, 0.000000000000000000 ) ) ;
#235 = DIRECTION ( 'NONE',  ( 1.000000000000000000, 0.000000000000000000, 0.000000000000000000 ) ) ;
#236 = EDGE_CURVE ( 'NONE', #226, #3, #303, .T. ) ;
#237 = APPLICATION_PROTOCOL_DEFINITION ( 'international standard', 'config_control_design', 1994, #55 ) ;
#238 = LINE ( 'NONE', #240, #108 ) ;
#239 = CARTESIAN_POINT ( 'NONE',  ( -19.50000000000000000, 2.388061258337338939E-15, 25.00000000000000000 ) ) ;
#240 = CARTESIAN_POINT ( 'NONE',  ( 19.50000000000000000, 0.000000000000000000, -3.001000000000000334 ) ) ;
#241 = ORIENTED_EDGE ( 'NONE', *, *, #300, .F. ) ;
#242 = ADVANCED_FACE ( 'NONE', ( #53, #5 ), #26, .T. ) ;
#243 = DATE_TIME_ROLE ( 'creation_date' ) ;
#244 = EDGE_LOOP ( 'NONE', ( #241, #139 ) ) ;
#245 = DATE_AND_TIME ( #269, #70 ) ;
#246 = ORIENTED_EDGE ( 'NONE', *, *, #111, .F. ) ;
#247 = COORDINATED_UNIVERSAL_TIME_OFFSET ( 1, 0, .AHEAD. ) ;
#248 = ORIENTED_EDGE ( 'NONE', *, *, #159, .T. ) ;
#249 = APPROVAL_ROLE ( '' ) ;
#250 = ORIENTED_EDGE ( 'NONE', *, *, #206, .T. ) ;
#251 = PLANE ( 'NONE',  #160 ) ;
#252 = APPROVAL ( #161, 'UNSPECIFIED' ) ;
#253 = LINE ( 'NONE', #153, #289 ) ;
#254 = LOCAL_TIME ( 8, 13, 23.00000000000000000, #83 ) ;
#255 = DIRECTION ( 'NONE',  ( 1.000000000000000000, 0.000000000000000000, -0.000000000000000000 ) ) ;
#256 = CIRCLE ( 'NONE', #155, 27.50000000000000000 ) ;
#257 = FACE_OUTER_BOUND ( 'NONE', #134, .T. ) ;
#258 = DIRECTION ( 'NONE',  ( -0.000000000000000000, -0.000000000000000000, 1.000000000000000000 ) ) ;
#259 = DIRECTION ( 'NONE',  ( -0.000000000000000000, -0.000000000000000000, 1.000000000000000000 ) ) ;
#260 = AXIS2_PLACEMENT_3D ( 'NONE', #276, #210, #25 ) ;
#261 = CARTESIAN_POINT ( 'NONE',  ( 27.50000000000000000, 3.367778697655221307E-15, 25.00000000000000000 ) ) ;
#262 = EDGE_CURVE ( 'NONE', #267, #226, #80, .T. ) ;
#263 = LINE ( 'NONE', #158, #167 ) ;
#264 = CARTESIAN_POINT ( 'NONE',  ( -19.50000000000000000, 2.388061258337338939E-15, -3.000000000000000000 ) ) ;
#265 = CLOSED_SHELL ( 'NONE', ( #66, #17, #1, #21, #57, #131, #313, #242, #46 ) ) ;
#266 = DATE_TIME_ROLE ( 'classification_date' ) ;
#267 = VERTEX_POINT ( 'NONE', #312 ) ;
#268 = AXIS2_PLACEMENT_3D ( 'NONE', #286, #157, #82 ) ;
#269 = CALENDAR_DATE ( 2022, 1, 7 ) ;
#270 = ORIENTED_EDGE ( 'NONE', *, *, #78, .F. ) ;
#271 = COORDINATED_UNIVERSAL_TIME_OFFSET ( 1, 0, .AHEAD. ) ;
#272 = VERTEX_POINT ( 'NONE', #104 ) ;
#273 = VERTEX_POINT ( 'NONE', #264 ) ;
#274 = EDGE_LOOP ( 'NONE', ( #13, #42, #229, #196 ) ) ;
#275 = AXIS2_PLACEMENT_3D ( 'NONE', #68, #176, #278 ) ;
#276 = CARTESIAN_POINT ( 'NONE',  ( 0.000000000000000000, 0.000000000000000000, 0.000000000000000000 ) ) ;
#277 = EDGE_CURVE ( 'NONE', #197, #29, #135, .T. ) ;
#278 = DIRECTION ( 'NONE',  ( -1.000000000000000000, 0.000000000000000000, 0.000000000000000000 ) ) ;
#279 = CARTESIAN_POINT ( 'NONE',  ( 0.000000000000000000, 0.000000000000000000, 25.00000000000000000 ) ) ;
#280 = AXIS2_PLACEMENT_3D ( 'NONE', #279, #203, #306 ) ;
#281 = VECTOR ( 'NONE', #185, 1000.000000000000000 ) ;
#282 = EDGE_CURVE ( 'NONE', #273, #298, #129, .T. ) ;
#283 = DIRECTION ( 'NONE',  ( 0.000000000000000000, 0.000000000000000000, 1.000000000000000000 ) ) ;
#284 = DIRECTION ( 'NONE',  ( -1.000000000000000000, 0.000000000000000000, 0.000000000000000000 ) ) ;
#285 = DIRECTION ( 'NONE',  ( 1.000000000000000000, 0.000000000000000000, 0.000000000000000000 ) ) ;
#286 = CARTESIAN_POINT ( 'NONE',  ( 0.000000000000000000, 0.000000000000000000, 0.000000000000000000 ) ) ;
#287 = DIRECTION ( 'NONE',  ( 0.000000000000000000, 0.000000000000000000, 1.000000000000000000 ) ) ;
#288 = CC_DESIGN_DATE_AND_TIME_ASSIGNMENT ( #105, #243, ( #27 ) ) ;
#289 = VECTOR ( 'NONE', #258, 1000.000000000000000 ) ;
#290 = APPROVAL_DATE_TIME ( #245, #192 ) ;
#291 = ORIENTED_EDGE ( 'NONE', *, *, #159, .F. ) ;
#292 = APPROVAL_DATE_TIME ( #9, #252 ) ;
#293 = ORIENTED_EDGE ( 'NONE', *, *, #8, .T. ) ;
#294 = CC_DESIGN_DATE_AND_TIME_ASSIGNMENT ( #140, #266, ( #101 ) ) ;
#295 = CC_DESIGN_APPROVAL ( #192, ( #101 ) ) ;
#296 = AXIS2_PLACEMENT_3D ( 'NONE', #97, #99, #284 ) ;
#297 = ORIENTED_EDGE ( 'NONE', *, *, #119, .T. ) ;
#298 = VERTEX_POINT ( 'NONE', #239 ) ;
#299 = CARTESIAN_POINT ( 'NONE',  ( -27.50000000000000000, 0.000000000000000000, 0.000000000000000000 ) ) ;
#300 = EDGE_CURVE ( 'NONE', #29, #197, #79, .T. ) ;
#301 = AXIS2_PLACEMENT_3D ( 'NONE', #233, #152, #235 ) ;
#302 = DIRECTION ( 'NONE',  ( 1.000000000000000000, 0.000000000000000000, 0.000000000000000000 ) ) ;
#303 = CIRCLE ( 'NONE', #107, 27.50000000000000000 ) ;
#304 = CARTESIAN_POINT ( 'NONE',  ( 0.000000000000000000, 0.000000000000000000, 25.00000000000000000 ) ) ;
#305 = FACE_OUTER_BOUND ( 'NONE', #110, .T. ) ;
#306 = DIRECTION ( 'NONE',  ( 1.000000000000000000, 0.000000000000000000, 0.000000000000000000 ) ) ;
#307 = CARTESIAN_POINT ( 'NONE',  ( -24.00000000000000355, 2.939152317953648289E-15, 0.000000000000000000 ) ) ;
#308 = DIRECTION ( 'NONE',  ( -1.000000000000000000, 0.000000000000000000, -0.000000000000000000 ) ) ;
#309 = DIRECTION ( 'NONE',  ( 0.000000000000000000, 0.000000000000000000, 1.000000000000000000 ) ) ;
#310 = ADVANCED_BREP_SHAPE_REPRESENTATION ( 'R4-006', ( #81, #150 ), #103 ) ;
#311 = DIRECTION ( 'NONE',  ( 0.000000000000000000, 0.000000000000000000, -1.000000000000000000 ) ) ;
#312 = CARTESIAN_POINT ( 'NONE',  ( 27.50000000000000000, 3.367778697655221307E-15, 25.00000000000000000 ) ) ;
#313 = ADVANCED_FACE ( 'NONE', ( #4 ), #102, .T. ) ;
#314 = CARTESIAN_POINT ( 'NONE',  ( 0.000000000000000000, 0.000000000000000000, -3.000000000000000000 ) ) ;
#315 = APPROVAL_STATUS ( 'not_yet_approved' ) ;
#316 = ORIENTED_EDGE ( 'NONE', *, *, #136, .F. ) ;
#317 = PERSON_AND_ORGANIZATION_ROLE ( 'creator' ) ;
#318 = ORIENTED_EDGE ( 'NONE', *, *, #201, .F. ) ;
#319 = ORIENTED_EDGE ( 'NONE', *, *, #111, .T. ) ;
#320 = CALENDAR_DATE ( 2022, 1, 7 ) ;
#321 = EDGE_LOOP ( 'NONE', ( #293, #141 ) ) ;
#322 = FACE_OUTER_BOUND ( 'NONE', #225, .T. ) ;
#323 = CARTESIAN_POINT ( 'NONE',  ( 0.000000000000000000, 0.000000000000000000, 25.00000000000000000 ) ) ;
#324 = CIRCLE ( 'NONE', #204, 24.00000000000000355 ) ;
#325 = DIRECTION ( 'NONE',  ( 0.000000000000000000, 0.000000000000000000, -1.000000000000000000 ) ) ;
#326 = CARTESIAN_POINT ( 'NONE',  ( 0.000000000000000000, 0.000000000000000000, -3.000000000000000000 ) ) ;
#327 = CARTESIAN_POINT ( 'NONE',  ( 24.00000000000000355, 0.000000000000000000, 0.000000000000000000 ) ) ;
#328 = CARTESIAN_POINT ( 'NONE',  ( 19.50000000000000000, 0.000000000000000000, 25.00000000000000000 ) ) ;
#329 = CIRCLE ( 'NONE', #275, 19.50000000000000000 ) ;
ENDSEC;
END-ISO-10303-21;
