ISO-10303-21;
HEADER;
FILE_DESCRIPTION (( 'STEP AP203' ),
    '1' );
FILE_NAME ('R4-007.STEP',
    '2022-07-01T06:14:04',
    ( '' ),
    ( '' ),
    'SwSTEP 2.0',
    'SolidWorks 2022',
    '' );
FILE_SCHEMA (( 'CONFIG_CONTROL_DESIGN' ));
ENDSEC;

DATA;
#1 = CYLINDRICAL_SURFACE ( 'NONE', #232, 32.50000000000000000 ) ;
#2 = EDGE_CURVE ( 'NONE', #119, #66, #163, .T. ) ;
#3 = DIRECTION ( 'NONE',  ( 1.000000000000000000, 0.000000000000000000, 0.000000000000000000 ) ) ;
#4 = CARTESIAN_POINT ( 'NONE',  ( 0.000000000000000000, 0.000000000000000000, 0.000000000000000000 ) ) ;
#5 = AXIS2_PLACEMENT_3D ( 'NONE', #286, #76, #262 ) ;
#6 = CARTESIAN_POINT ( 'NONE',  ( 0.000000000000000000, 0.000000000000000000, 30.00000000000000000 ) ) ;
#7 = MANIFOLD_SOLID_BREP ( 'Extrusion3', #265 ) ;
#8 = DIRECTION ( 'NONE',  ( 0.000000000000000000, 0.000000000000000000, 1.000000000000000000 ) ) ;
#9 = EDGE_CURVE ( 'NONE', #71, #95, #252, .T. ) ;
#10 = AXIS2_PLACEMENT_3D ( 'NONE', #105, #237, #28 ) ;
#11 = ORIENTED_EDGE ( 'NONE', *, *, #120, .T. ) ;
#12 = PERSON_AND_ORGANIZATION ( #106, #203 ) ;
#13 = PERSON_AND_ORGANIZATION ( #106, #203 ) ;
#14 = CC_DESIGN_PERSON_AND_ORGANIZATION_ASSIGNMENT ( #218, #269, ( #54 ) ) ;
#15 = ORIENTED_EDGE ( 'NONE', *, *, #147, .F. ) ;
#16 = PERSON_AND_ORGANIZATION ( #106, #203 ) ;
#17 = ORIENTED_EDGE ( 'NONE', *, *, #294, .T. ) ;
#18 = LOCAL_TIME ( 8, 14, 4.000000000000000000, #317 ) ;
#19 = APPROVAL_ROLE ( '' ) ;
#20 = ORIENTED_EDGE ( 'NONE', *, *, #305, .T. ) ;
#21 = ORIENTED_EDGE ( 'NONE', *, *, #166, .T. ) ;
#22 = APPROVAL_PERSON_ORGANIZATION ( #13, #301, #19 ) ;
#23 = ORIENTED_EDGE ( 'NONE', *, *, #9, .T. ) ;
#24 = DIRECTION ( 'NONE',  ( 0.000000000000000000, 0.000000000000000000, 1.000000000000000000 ) ) ;
#25 = AXIS2_PLACEMENT_3D ( 'NONE', #79, #285, #3 ) ;
#26 = DIRECTION ( 'NONE',  ( 1.000000000000000000, 0.000000000000000000, 0.000000000000000000 ) ) ;
#27 = CARTESIAN_POINT ( 'NONE',  ( 32.50000000000000000, 3.980102097228898626E-15, 30.00000000000000000 ) ) ;
#28 = DIRECTION ( 'NONE',  ( 1.000000000000000000, 0.000000000000000000, 0.000000000000000000 ) ) ;
#29 = DIRECTION ( 'NONE',  ( 0.000000000000000000, 0.000000000000000000, -1.000000000000000000 ) ) ;
#30 = CARTESIAN_POINT ( 'NONE',  ( 27.50000000000000000, 0.000000000000000000, -4.000000000000003553 ) ) ;
#31 = DIRECTION ( 'NONE',  ( 0.000000000000000000, 0.000000000000000000, -1.000000000000000000 ) ) ;
#32 = CARTESIAN_POINT ( 'NONE',  ( 0.000000000000000000, 0.000000000000000000, -4.000000000000003553 ) ) ;
#33 = DIRECTION ( 'NONE',  ( 1.000000000000000000, 0.000000000000000000, 0.000000000000000000 ) ) ;
#34 = CC_DESIGN_DATE_AND_TIME_ASSIGNMENT ( #242, #272, ( #54 ) ) ;
#35 = CARTESIAN_POINT ( 'NONE',  ( 22.45000000000000284, 0.000000000000000000, -4.001000000000004775 ) ) ;
#36 = ORIENTED_EDGE ( 'NONE', *, *, #46, .F. ) ;
#37 = VECTOR ( 'NONE', #77, 1000.000000000000000 ) ;
#38 = CALENDAR_DATE ( 2022, 1, 7 ) ;
#39 = ORIENTED_EDGE ( 'NONE', *, *, #257, .T. ) ;
#40 = VERTEX_POINT ( 'NONE', #99 ) ;
#41 = APPROVAL_STATUS ( 'not_yet_approved' ) ;
#42 = EDGE_LOOP ( 'NONE', ( #268, #17, #245, #275 ) ) ;
#43 = AXIS2_PLACEMENT_3D ( 'NONE', #158, #266, #33 ) ;
#44 = CARTESIAN_POINT ( 'NONE',  ( -27.50000000000000000, 3.367778697655221307E-15, -4.000000000000003553 ) ) ;
#45 = AXIS2_PLACEMENT_3D ( 'NONE', #84, #82, #310 ) ;
#46 = EDGE_CURVE ( 'NONE', #58, #201, #144, .T. ) ;
#47 = EDGE_LOOP ( 'NONE', ( #165, #11, #189, #253 ) ) ;
#48 = DIRECTION ( 'NONE',  ( 0.000000000000000000, 0.000000000000000000, 1.000000000000000000 ) ) ;
#49 = CIRCLE ( 'NONE', #45, 27.50000000000000000 ) ;
#50 = CARTESIAN_POINT ( 'NONE',  ( -22.45000000000000284, 2.749332064085808099E-15, -4.001000000000004775 ) ) ;
#51 = CARTESIAN_POINT ( 'NONE',  ( 0.000000000000000000, 0.000000000000000000, -4.001000000000004775 ) ) ;
#52 = DIRECTION ( 'NONE',  ( 1.000000000000000000, 0.000000000000000000, 0.000000000000000000 ) ) ;
#53 = CARTESIAN_POINT ( 'NONE',  ( 27.50000000000000000, 0.000000000000000000, -4.000000000000003553 ) ) ;
#54 = PRODUCT_DEFINITION ( 'UNKNOWN', '', #129, #248 ) ;
#55 = CYLINDRICAL_SURFACE ( 'NONE', #43, 22.45000000000000284 ) ;
#56 = VECTOR ( 'NONE', #308, 1000.000000000000000 ) ;
#57 = DIRECTION ( 'NONE',  ( -1.000000000000000000, 0.000000000000000000, 0.000000000000000000 ) ) ;
#58 = VERTEX_POINT ( 'NONE', #278 ) ;
#59 = MECHANICAL_CONTEXT ( 'NONE', #316, 'mechanical' ) ;
#60 = ORIENTED_EDGE ( 'NONE', *, *, #257, .F. ) ;
#61 = APPROVAL_ROLE ( '' ) ;
#62 = CIRCLE ( 'NONE', #271, 22.45000000000000284 ) ;
#63 = ORIENTED_EDGE ( 'NONE', *, *, #294, .F. ) ;
#64 = SHAPE_DEFINITION_REPRESENTATION ( #293, #145 ) ;
#65 = APPROVAL_STATUS ( 'not_yet_approved' ) ;
#66 = VERTEX_POINT ( 'NONE', #44 ) ;
#67 = FACE_OUTER_BOUND ( 'NONE', #68, .T. ) ;
#68 = EDGE_LOOP ( 'NONE', ( #148, #194 ) ) ;
#69 = VECTOR ( 'NONE', #107, 1000.000000000000000 ) ;
#70 = CARTESIAN_POINT ( 'NONE',  ( 22.45000000000000284, 0.000000000000000000, 30.00000000000000000 ) ) ;
#71 = VERTEX_POINT ( 'NONE', #70 ) ;
#72 = ADVANCED_FACE ( 'NONE', ( #172 ), #238, .T. ) ;
#73 = AXIS2_PLACEMENT_3D ( 'NONE', #202, #200, #300 ) ;
#74 = LOCAL_TIME ( 8, 14, 4.000000000000000000, #320 ) ;
#75 = DIRECTION ( 'NONE',  ( -1.000000000000000000, 0.000000000000000000, 0.000000000000000000 ) ) ;
#76 = DIRECTION ( 'NONE',  ( 0.000000000000000000, 0.000000000000000000, 1.000000000000000000 ) ) ;
#77 = DIRECTION ( 'NONE',  ( 0.000000000000000000, 0.000000000000000000, -1.000000000000000000 ) ) ;
#78 = LINE ( 'NONE', #50, #88 ) ;
#79 = CARTESIAN_POINT ( 'NONE',  ( 0.000000000000000000, 0.000000000000000000, 0.000000000000000000 ) ) ;
#80 = FACE_OUTER_BOUND ( 'NONE', #118, .T. ) ;
#81 = ADVANCED_FACE ( 'NONE', ( #183, #231 ), #155, .F. ) ;
#82 = DIRECTION ( 'NONE',  ( 0.000000000000000000, 0.000000000000000000, -1.000000000000000000 ) ) ;
#83 = DIRECTION ( 'NONE',  ( -1.000000000000000000, 0.000000000000000000, 0.000000000000000000 ) ) ;
#84 = CARTESIAN_POINT ( 'NONE',  ( 0.000000000000000000, 0.000000000000000000, -4.000000000000003553 ) ) ;
#85 = DIRECTION ( 'NONE',  ( 0.000000000000000000, 0.000000000000000000, -1.000000000000000000 ) ) ;
#86 = APPLICATION_PROTOCOL_DEFINITION ( 'international standard', 'config_control_design', 1994, #316 ) ;
#87 = CALENDAR_DATE ( 2022, 1, 7 ) ;
#88 = VECTOR ( 'NONE', #104, 1000.000000000000000 ) ;
#89 = AXIS2_PLACEMENT_3D ( 'NONE', #151, #281, #75 ) ;
#90 = CARTESIAN_POINT ( 'NONE',  ( 0.000000000000000000, 0.000000000000000000, 0.000000000000000000 ) ) ;
#91 = ORIENTED_EDGE ( 'NONE', *, *, #288, .T. ) ;
#92 = EDGE_CURVE ( 'NONE', #201, #58, #263, .T. ) ;
#93 = EDGE_LOOP ( 'NONE', ( #109, #15, #326, #97 ) ) ;
#94 = COORDINATED_UNIVERSAL_TIME_OFFSET ( 1, 0, .AHEAD. ) ;
#95 = VERTEX_POINT ( 'NONE', #207 ) ;
#96 = ADVANCED_FACE ( 'NONE', ( #229 ), #1, .T. ) ;
#97 = ORIENTED_EDGE ( 'NONE', *, *, #46, .T. ) ;
#98 = VERTEX_POINT ( 'NONE', #307 ) ;
#99 = CARTESIAN_POINT ( 'NONE',  ( -22.45000000000000284, 2.749332064085808099E-15, -4.000000000000003553 ) ) ;
#100 = CARTESIAN_POINT ( 'NONE',  ( 32.50000000000000000, 3.980102097228898626E-15, 30.00000000000000000 ) ) ;
#101 = DIRECTION ( 'NONE',  ( 0.000000000000000000, 0.000000000000000000, 1.000000000000000000 ) ) ;
#102 = DIRECTION ( 'NONE',  ( 0.000000000000000000, 0.000000000000000000, 1.000000000000000000 ) ) ;
#103 = CC_DESIGN_PERSON_AND_ORGANIZATION_ASSIGNMENT ( #274, #196, ( #129 ) ) ;
#104 = DIRECTION ( 'NONE',  ( 0.000000000000000000, 0.000000000000000000, 1.000000000000000000 ) ) ;
#105 = CARTESIAN_POINT ( 'NONE',  ( 0.000000000000000000, 0.000000000000000000, 0.000000000000000000 ) ) ;
#106 = PERSON ( 'UNSPECIFIED', 'UNSPECIFIED', 'UNSPECIFIED', ('UNSPECIFIED'), ('UNSPECIFIED'), ('UNSPECIFIED') ) ;
#107 = DIRECTION ( 'NONE',  ( 0.000000000000000000, 0.000000000000000000, 1.000000000000000000 ) ) ;
#108 = CIRCLE ( 'NONE', #256, 22.45000000000000284 ) ;
#109 = ORIENTED_EDGE ( 'NONE', *, *, #120, .F. ) ;
#110 = ADVANCED_FACE ( 'NONE', ( #282 ), #211, .F. ) ;
#111 = DIRECTION ( 'NONE',  ( 1.000000000000000000, 0.000000000000000000, 0.000000000000000000 ) ) ;
#112 = PERSON_AND_ORGANIZATION_ROLE ( 'classification_officer' ) ;
#113 = PERSON_AND_ORGANIZATION ( #106, #203 ) ;
#114 = SECURITY_CLASSIFICATION ( '', '', #137 ) ;
#115 = ORIENTED_EDGE ( 'NONE', *, *, #2, .F. ) ;
#116 = CC_DESIGN_PERSON_AND_ORGANIZATION_ASSIGNMENT ( #246, #243, ( #171 ) ) ;
#117 = DATE_AND_TIME ( #38, #74 ) ;
#118 = EDGE_LOOP ( 'NONE', ( #63, #115, #160, #314 ) ) ;
#119 = VERTEX_POINT ( 'NONE', #53 ) ;
#120 = EDGE_CURVE ( 'NONE', #135, #201, #131, .T. ) ;
#121 =( GEOMETRIC_REPRESENTATION_CONTEXT ( 3 ) GLOBAL_UNCERTAINTY_ASSIGNED_CONTEXT ( ( #197 ) ) GLOBAL_UNIT_ASSIGNED_CONTEXT ( ( #188, #124, #132 ) ) REPRESENTATION_CONTEXT ( 'NONE', 'WORKASPACE' ) );
#122 = CC_DESIGN_PERSON_AND_ORGANIZATION_ASSIGNMENT ( #16, #226, ( #129 ) ) ;
#123 = CIRCLE ( 'NONE', #324, 22.45000000000000284 ) ;
#124 =( NAMED_UNIT ( * ) PLANE_ANGLE_UNIT ( ) SI_UNIT ( $, .RADIAN. ) );
#125 = CARTESIAN_POINT ( 'NONE',  ( 0.000000000000000000, 0.000000000000000000, -4.000000000000003553 ) ) ;
#126 = ADVANCED_FACE ( 'NONE', ( #80 ), #304, .T. ) ;
#127 = CARTESIAN_POINT ( 'NONE',  ( -32.50000000000000000, 0.000000000000000000, 30.00000000000000000 ) ) ;
#128 = VECTOR ( 'NONE', #31, 1000.000000000000000 ) ;
#129 = PRODUCT_DEFINITION_FORMATION_WITH_SPECIFIED_SOURCE ( 'ANY', '', #171, .NOT_KNOWN. ) ;
#130 = DIRECTION ( 'NONE',  ( 0.000000000000000000, 0.000000000000000000, 1.000000000000000000 ) ) ;
#131 = LINE ( 'NONE', #27, #128 ) ;
#132 =( NAMED_UNIT ( * ) SI_UNIT ( $, .STERADIAN. ) SOLID_ANGLE_UNIT ( ) );
#133 = FACE_BOUND ( 'NONE', #273, .T. ) ;
#134 = DIRECTION ( 'NONE',  ( 0.000000000000000000, 0.000000000000000000, 1.000000000000000000 ) ) ;
#135 = VERTEX_POINT ( 'NONE', #100 ) ;
#136 = COORDINATED_UNIVERSAL_TIME_OFFSET ( 1, 0, .AHEAD. ) ;
#137 = SECURITY_CLASSIFICATION_LEVEL ( 'unclassified' ) ;
#138 = ORIENTED_EDGE ( 'NONE', *, *, #198, .T. ) ;
#139 = EDGE_LOOP ( 'NONE', ( #224, #195 ) ) ;
#140 = APPLICATION_PROTOCOL_DEFINITION ( 'international standard', 'config_control_design', 1994, #329 ) ;
#141 = VERTEX_POINT ( 'NONE', #235 ) ;
#142 = EDGE_LOOP ( 'NONE', ( #36, #174 ) ) ;
#143 = AXIS2_PLACEMENT_3D ( 'NONE', #313, #85, #57 ) ;
#144 = CIRCLE ( 'NONE', #250, 32.50000000000000000 ) ;
#145 = ADVANCED_BREP_SHAPE_REPRESENTATION ( 'R4-007', ( #7, #192 ), #121 ) ;
#146 = ORIENTED_EDGE ( 'NONE', *, *, #219, .F. ) ;
#147 = EDGE_CURVE ( 'NONE', #321, #135, #277, .T. ) ;
#148 = ORIENTED_EDGE ( 'NONE', *, *, #2, .T. ) ;
#149 = DIRECTION ( 'NONE',  ( 1.000000000000000000, 0.000000000000000000, 0.000000000000000000 ) ) ;
#150 = CIRCLE ( 'NONE', #25, 27.50000000000000000 ) ;
#151 = CARTESIAN_POINT ( 'NONE',  ( 0.000000000000000000, 0.000000000000000000, 30.00000000000000000 ) ) ;
#152 = DIRECTION ( 'NONE',  ( -1.000000000000000000, 0.000000000000000000, 0.000000000000000000 ) ) ;
#153 = CARTESIAN_POINT ( 'NONE',  ( 0.000000000000000000, 0.000000000000000000, 30.00000000000000000 ) ) ;
#154 = DIRECTION ( 'NONE',  ( -0.000000000000000000, -0.000000000000000000, 1.000000000000000000 ) ) ;
#155 = PLANE ( 'NONE',  #5 ) ;
#156 = APPROVAL_PERSON_ORGANIZATION ( #193, #247, #296 ) ;
#157 = CARTESIAN_POINT ( 'NONE',  ( -32.50000000000000000, 0.000000000000000000, 30.00000000000000000 ) ) ;
#158 = CARTESIAN_POINT ( 'NONE',  ( 0.000000000000000000, 0.000000000000000000, -4.001000000000004775 ) ) ;
#159 = CARTESIAN_POINT ( 'NONE',  ( 27.50000000000000000, 0.000000000000000000, 0.000000000000000000 ) ) ;
#160 = ORIENTED_EDGE ( 'NONE', *, *, #312, .T. ) ;
#161 = CALENDAR_DATE ( 2022, 1, 7 ) ;
#162 = ORIENTED_EDGE ( 'NONE', *, *, #147, .T. ) ;
#163 = CIRCLE ( 'NONE', #73, 27.50000000000000000 ) ;
#164 = CALENDAR_DATE ( 2022, 1, 7 ) ;
#165 = ORIENTED_EDGE ( 'NONE', *, *, #288, .F. ) ;
#166 = EDGE_CURVE ( 'NONE', #40, #95, #78, .T. ) ;
#167 = APPROVAL_DATE_TIME ( #117, #225 ) ;
#168 = COORDINATED_UNIVERSAL_TIME_OFFSET ( 1, 0, .AHEAD. ) ;
#169 = CIRCLE ( 'NONE', #10, 27.50000000000000000 ) ;
#170 = CARTESIAN_POINT ( 'NONE',  ( 0.000000000000000000, 0.000000000000000000, 0.000000000000000000 ) ) ;
#171 = PRODUCT ( 'R4-007', 'R4-007', '', ( #59 ) ) ;
#172 = FACE_OUTER_BOUND ( 'NONE', #47, .T. ) ;
#173 = ORIENTED_EDGE ( 'NONE', *, *, #219, .T. ) ;
#174 = ORIENTED_EDGE ( 'NONE', *, *, #92, .F. ) ;
#175 = CC_DESIGN_SECURITY_CLASSIFICATION ( #114, ( #129 ) ) ;
#176 = ADVANCED_FACE ( 'NONE', ( #213, #283 ), #204, .T. ) ;
#177 = DIRECTION ( 'NONE',  ( -1.000000000000000000, 0.000000000000000000, 0.000000000000000000 ) ) ;
#178 = DIRECTION ( 'NONE',  ( 1.000000000000000000, 0.000000000000000000, 0.000000000000000000 ) ) ;
#179 = AXIS2_PLACEMENT_3D ( 'NONE', #125, #181, #255 ) ;
#180 = LINE ( 'NONE', #261, #69 ) ;
#181 = DIRECTION ( 'NONE',  ( 0.000000000000000000, 0.000000000000000000, 1.000000000000000000 ) ) ;
#182 = LINE ( 'NONE', #30, #199 ) ;
#183 = FACE_OUTER_BOUND ( 'NONE', #142, .T. ) ;
#184 = CARTESIAN_POINT ( 'NONE',  ( 0.000000000000000000, 0.000000000000000000, 30.00000000000000000 ) ) ;
#185 = CARTESIAN_POINT ( 'NONE',  ( 32.50000000000000000, 3.980102097228898626E-15, 0.000000000000000000 ) ) ;
#186 = AXIS2_PLACEMENT_3D ( 'NONE', #230, #101, #52 ) ;
#187 = PRODUCT_RELATED_PRODUCT_CATEGORY ( 'detail', '', ( #171 ) ) ;
#188 =( LENGTH_UNIT ( ) NAMED_UNIT ( * ) SI_UNIT ( .MILLI., .METRE. ) );
#189 = ORIENTED_EDGE ( 'NONE', *, *, #92, .T. ) ;
#190 = APPROVAL_DATE_TIME ( #315, #301 ) ;
#191 = DATE_AND_TIME ( #87, #18 ) ;
#192 = AXIS2_PLACEMENT_3D ( 'NONE', #90, #295, #111 ) ;
#193 = PERSON_AND_ORGANIZATION ( #106, #203 ) ;
#194 = ORIENTED_EDGE ( 'NONE', *, *, #325, .T. ) ;
#195 = ORIENTED_EDGE ( 'NONE', *, *, #236, .F. ) ;
#196 = PERSON_AND_ORGANIZATION_ROLE ( 'creator' ) ;
#197 = UNCERTAINTY_MEASURE_WITH_UNIT (LENGTH_MEASURE( 1.000000000000000082E-05 ), #188, 'distance_accuracy_value', 'NONE');
#198 = EDGE_CURVE ( 'NONE', #40, #141, #123, .T. ) ;
#199 = VECTOR ( 'NONE', #130, 1000.000000000000000 ) ;
#200 = DIRECTION ( 'NONE',  ( 0.000000000000000000, 0.000000000000000000, -1.000000000000000000 ) ) ;
#201 = VERTEX_POINT ( 'NONE', #185 ) ;
#202 = CARTESIAN_POINT ( 'NONE',  ( 0.000000000000000000, 0.000000000000000000, -4.000000000000003553 ) ) ;
#203 = ORGANIZATION ( 'UNSPECIFIED', 'UNSPECIFIED', '' ) ;
#204 = PLANE ( 'NONE',  #311 ) ;
#205 = CARTESIAN_POINT ( 'NONE',  ( 0.000000000000000000, 0.000000000000000000, -4.000000000000003553 ) ) ;
#206 = ADVANCED_FACE ( 'NONE', ( #287 ), #55, .F. ) ;
#207 = CARTESIAN_POINT ( 'NONE',  ( -22.45000000000000284, 2.749332064085808099E-15, 30.00000000000000000 ) ) ;
#208 = AXIS2_PLACEMENT_3D ( 'NONE', #4, #102, #258 ) ;
#209 = LOCAL_TIME ( 8, 14, 4.000000000000000000, #136 ) ;
#210 = DIRECTION ( 'NONE',  ( 0.000000000000000000, 0.000000000000000000, 1.000000000000000000 ) ) ;
#211 = CYLINDRICAL_SURFACE ( 'NONE', #319, 22.45000000000000284 ) ;
#212 = FACE_OUTER_BOUND ( 'NONE', #42, .T. ) ;
#213 = FACE_BOUND ( 'NONE', #276, .T. ) ;
#214 = ADVANCED_FACE ( 'NONE', ( #133, #67 ), #220, .T. ) ;
#215 = DIRECTION ( 'NONE',  ( 1.000000000000000000, 0.000000000000000000, 0.000000000000000000 ) ) ;
#216 = CIRCLE ( 'NONE', #186, 32.50000000000000000 ) ;
#217 = VERTEX_POINT ( 'NONE', #159 ) ;
#218 = PERSON_AND_ORGANIZATION ( #106, #203 ) ;
#219 = EDGE_CURVE ( 'NONE', #95, #71, #108, .T. ) ;
#220 = PLANE ( 'NONE',  #143 ) ;
#221 = DATE_TIME_ROLE ( 'classification_date' ) ;
#222 = DATE_AND_TIME ( #161, #299 ) ;
#223 = APPROVAL_PERSON_ORGANIZATION ( #12, #225, #61 ) ;
#224 = ORIENTED_EDGE ( 'NONE', *, *, #270, .F. ) ;
#225 = APPROVAL ( #290, 'UNSPECIFIED' ) ;
#226 = PERSON_AND_ORGANIZATION_ROLE ( 'design_supplier' ) ;
#227 = CC_DESIGN_APPROVAL ( #247, ( #114 ) ) ;
#228 = CARTESIAN_POINT ( 'NONE',  ( 0.000000000000000000, 0.000000000000000000, 30.00000000000000000 ) ) ;
#229 = FACE_OUTER_BOUND ( 'NONE', #93, .T. ) ;
#230 = CARTESIAN_POINT ( 'NONE',  ( 0.000000000000000000, 0.000000000000000000, 30.00000000000000000 ) ) ;
#231 = FACE_BOUND ( 'NONE', #139, .T. ) ;
#232 = AXIS2_PLACEMENT_3D ( 'NONE', #228, #29, #177 ) ;
#233 = LOCAL_TIME ( 8, 14, 4.000000000000000000, #94 ) ;
#234 = CC_DESIGN_DATE_AND_TIME_ASSIGNMENT ( #222, #221, ( #114 ) ) ;
#235 = CARTESIAN_POINT ( 'NONE',  ( 22.45000000000000284, 0.000000000000000000, -4.000000000000003553 ) ) ;
#236 = EDGE_CURVE ( 'NONE', #98, #217, #169, .T. ) ;
#237 = DIRECTION ( 'NONE',  ( -0.000000000000000000, -0.000000000000000000, -1.000000000000000000 ) ) ;
#238 = CYLINDRICAL_SURFACE ( 'NONE', #89, 32.50000000000000000 ) ;
#239 = CYLINDRICAL_SURFACE ( 'NONE', #327, 27.50000000000000000 ) ;
#240 = ORIENTED_EDGE ( 'NONE', *, *, #305, .F. ) ;
#241 = AXIS2_PLACEMENT_3D ( 'NONE', #6, #8, #149 ) ;
#242 = DATE_AND_TIME ( #323, #233 ) ;
#243 = PERSON_AND_ORGANIZATION_ROLE ( 'design_owner' ) ;
#244 = EDGE_LOOP ( 'NONE', ( #322, #60, #20, #23 ) ) ;
#245 = ORIENTED_EDGE ( 'NONE', *, *, #236, .T. ) ;
#246 = PERSON_AND_ORGANIZATION ( #106, #203 ) ;
#247 = APPROVAL ( #65, 'UNSPECIFIED' ) ;
#248 = DESIGN_CONTEXT ( 'detailed design', #329, 'design' ) ;
#249 = ADVANCED_FACE ( 'NONE', ( #212 ), #239, .T. ) ;
#250 = AXIS2_PLACEMENT_3D ( 'NONE', #170, #298, #297 ) ;
#251 = CC_DESIGN_APPROVAL ( #301, ( #54 ) ) ;
#252 = CIRCLE ( 'NONE', #291, 22.45000000000000284 ) ;
#253 = ORIENTED_EDGE ( 'NONE', *, *, #284, .F. ) ;
#254 = CARTESIAN_POINT ( 'NONE',  ( 0.000000000000000000, 0.000000000000000000, 30.00000000000000000 ) ) ;
#255 = DIRECTION ( 'NONE',  ( 1.000000000000000000, 0.000000000000000000, 0.000000000000000000 ) ) ;
#256 = AXIS2_PLACEMENT_3D ( 'NONE', #184, #210, #267 ) ;
#257 = EDGE_CURVE ( 'NONE', #141, #40, #62, .T. ) ;
#258 = DIRECTION ( 'NONE',  ( 1.000000000000000000, 0.000000000000000000, 0.000000000000000000 ) ) ;
#259 = DIRECTION ( 'NONE',  ( -0.000000000000000000, -0.000000000000000000, 1.000000000000000000 ) ) ;
#260 = CC_DESIGN_PERSON_AND_ORGANIZATION_ASSIGNMENT ( #113, #112, ( #114 ) ) ;
#261 = CARTESIAN_POINT ( 'NONE',  ( -27.50000000000000000, 3.367778697655221307E-15, -4.000000000000003553 ) ) ;
#262 = DIRECTION ( 'NONE',  ( 1.000000000000000000, 0.000000000000000000, 0.000000000000000000 ) ) ;
#263 = CIRCLE ( 'NONE', #208, 32.50000000000000000 ) ;
#264 = CC_DESIGN_APPROVAL ( #225, ( #129 ) ) ;
#265 = CLOSED_SHELL ( 'NONE', ( #206, #249, #72, #81, #96, #176, #126, #214, #110 ) ) ;
#266 = DIRECTION ( 'NONE',  ( 0.000000000000000000, 0.000000000000000000, 1.000000000000000000 ) ) ;
#267 = DIRECTION ( 'NONE',  ( 1.000000000000000000, 0.000000000000000000, 0.000000000000000000 ) ) ;
#268 = ORIENTED_EDGE ( 'NONE', *, *, #325, .F. ) ;
#269 = PERSON_AND_ORGANIZATION_ROLE ( 'creator' ) ;
#270 = EDGE_CURVE ( 'NONE', #217, #98, #150, .T. ) ;
#271 = AXIS2_PLACEMENT_3D ( 'NONE', #205, #154, #152 ) ;
#272 = DATE_TIME_ROLE ( 'creation_date' ) ;
#273 = EDGE_LOOP ( 'NONE', ( #39, #138 ) ) ;
#274 = PERSON_AND_ORGANIZATION ( #106, #203 ) ;
#275 = ORIENTED_EDGE ( 'NONE', *, *, #312, .F. ) ;
#276 = EDGE_LOOP ( 'NONE', ( #318, #146 ) ) ;
#277 = CIRCLE ( 'NONE', #241, 32.50000000000000000 ) ;
#278 = CARTESIAN_POINT ( 'NONE',  ( -32.50000000000000000, 0.000000000000000000, 0.000000000000000000 ) ) ;
#279 = EDGE_LOOP ( 'NONE', ( #289, #21, #173, #240 ) ) ;
#280 = EDGE_LOOP ( 'NONE', ( #162, #91 ) ) ;
#281 = DIRECTION ( 'NONE',  ( 0.000000000000000000, 0.000000000000000000, -1.000000000000000000 ) ) ;
#282 = FACE_OUTER_BOUND ( 'NONE', #244, .T. ) ;
#283 = FACE_OUTER_BOUND ( 'NONE', #280, .T. ) ;
#284 = EDGE_CURVE ( 'NONE', #321, #58, #303, .T. ) ;
#285 = DIRECTION ( 'NONE',  ( -0.000000000000000000, -0.000000000000000000, -1.000000000000000000 ) ) ;
#286 = CARTESIAN_POINT ( 'NONE',  ( 0.000000000000000000, 0.000000000000000000, 0.000000000000000000 ) ) ;
#287 = FACE_OUTER_BOUND ( 'NONE', #279, .T. ) ;
#288 = EDGE_CURVE ( 'NONE', #135, #321, #216, .T. ) ;
#289 = ORIENTED_EDGE ( 'NONE', *, *, #198, .F. ) ;
#290 = APPROVAL_STATUS ( 'not_yet_approved' ) ;
#291 = AXIS2_PLACEMENT_3D ( 'NONE', #254, #24, #328 ) ;
#292 = APPROVAL_DATE_TIME ( #191, #247 ) ;
#293 = PRODUCT_DEFINITION_SHAPE ( 'NONE', 'NONE',  #54 ) ;
#294 = EDGE_CURVE ( 'NONE', #66, #98, #180, .T. ) ;
#295 = DIRECTION ( 'NONE',  ( 0.000000000000000000, 0.000000000000000000, 1.000000000000000000 ) ) ;
#296 = APPROVAL_ROLE ( '' ) ;
#297 = DIRECTION ( 'NONE',  ( 1.000000000000000000, 0.000000000000000000, 0.000000000000000000 ) ) ;
#298 = DIRECTION ( 'NONE',  ( 0.000000000000000000, 0.000000000000000000, 1.000000000000000000 ) ) ;
#299 = LOCAL_TIME ( 8, 14, 4.000000000000000000, #168 ) ;
#300 = DIRECTION ( 'NONE',  ( -1.000000000000000000, 0.000000000000000000, 0.000000000000000000 ) ) ;
#301 = APPROVAL ( #41, 'UNSPECIFIED' ) ;
#302 = DIRECTION ( 'NONE',  ( 0.000000000000000000, 0.000000000000000000, 1.000000000000000000 ) ) ;
#303 = LINE ( 'NONE', #127, #37 ) ;
#304 = CYLINDRICAL_SURFACE ( 'NONE', #179, 27.50000000000000000 ) ;
#305 = EDGE_CURVE ( 'NONE', #141, #71, #306, .T. ) ;
#306 = LINE ( 'NONE', #35, #56 ) ;
#307 = CARTESIAN_POINT ( 'NONE',  ( -27.50000000000000000, 3.367778697655221307E-15, 0.000000000000000000 ) ) ;
#308 = DIRECTION ( 'NONE',  ( 0.000000000000000000, 0.000000000000000000, 1.000000000000000000 ) ) ;
#309 = CARTESIAN_POINT ( 'NONE',  ( 0.000000000000000000, 0.000000000000000000, -4.000000000000003553 ) ) ;
#310 = DIRECTION ( 'NONE',  ( -1.000000000000000000, 0.000000000000000000, 0.000000000000000000 ) ) ;
#311 = AXIS2_PLACEMENT_3D ( 'NONE', #153, #302, #178 ) ;
#312 = EDGE_CURVE ( 'NONE', #119, #217, #182, .T. ) ;
#313 = CARTESIAN_POINT ( 'NONE',  ( 0.000000000000000000, 0.000000000000000000, -4.000000000000003553 ) ) ;
#314 = ORIENTED_EDGE ( 'NONE', *, *, #270, .T. ) ;
#315 = DATE_AND_TIME ( #164, #209 ) ;
#316 = APPLICATION_CONTEXT ( 'configuration controlled 3d designs of mechanical parts and assemblies' ) ;
#317 = COORDINATED_UNIVERSAL_TIME_OFFSET ( 1, 0, .AHEAD. ) ;
#318 = ORIENTED_EDGE ( 'NONE', *, *, #9, .F. ) ;
#319 = AXIS2_PLACEMENT_3D ( 'NONE', #51, #48, #26 ) ;
#320 = COORDINATED_UNIVERSAL_TIME_OFFSET ( 1, 0, .AHEAD. ) ;
#321 = VERTEX_POINT ( 'NONE', #157 ) ;
#322 = ORIENTED_EDGE ( 'NONE', *, *, #166, .F. ) ;
#323 = CALENDAR_DATE ( 2022, 1, 7 ) ;
#324 = AXIS2_PLACEMENT_3D ( 'NONE', #309, #259, #83 ) ;
#325 = EDGE_CURVE ( 'NONE', #66, #119, #49, .T. ) ;
#326 = ORIENTED_EDGE ( 'NONE', *, *, #284, .T. ) ;
#327 = AXIS2_PLACEMENT_3D ( 'NONE', #32, #134, #215 ) ;
#328 = DIRECTION ( 'NONE',  ( 1.000000000000000000, 0.000000000000000000, 0.000000000000000000 ) ) ;
#329 = APPLICATION_CONTEXT ( 'configuration controlled 3d designs of mechanical parts and assemblies' ) ;
ENDSEC;
END-ISO-10303-21;
