ISO-10303-21;
HEADER;
FILE_DESCRIPTION (( 'STEP AP203' ),
    '1' );
FILE_NAME ('R4-008.STEP',
    '2022-07-01T06:14:31',
    ( '' ),
    ( '' ),
    'SwSTEP 2.0',
    'SolidWorks 2022',
    '' );
FILE_SCHEMA (( 'CONFIG_CONTROL_DESIGN' ));
ENDSEC;

DATA;
#1 = PERSON_AND_ORGANIZATION ( #87, #252 ) ;
#2 = ADVANCED_FACE ( 'NONE', ( #238 ), #11, .F. ) ;
#3 = ORIENTED_EDGE ( 'NONE', *, *, #200, .T. ) ;
#4 = CALENDAR_DATE ( 2022, 1, 7 ) ;
#5 = SECURITY_CLASSIFICATION_LEVEL ( 'unclassified' ) ;
#6 = CIRCLE ( 'NONE', #53, 35.00000000000000711 ) ;
#7 = PERSON_AND_ORGANIZATION_ROLE ( 'creator' ) ;
#8 = VERTEX_POINT ( 'NONE', #294 ) ;
#9 = COORDINATED_UNIVERSAL_TIME_OFFSET ( 1, 0, .AHEAD. ) ;
#10 = APPROVAL ( #209, 'UNSPECIFIED' ) ;
#11 = CYLINDRICAL_SURFACE ( 'NONE', #158, 28.35000000000000142 ) ;
#12 = CALENDAR_DATE ( 2022, 1, 7 ) ;
#13 = CIRCLE ( 'NONE', #231, 28.35000000000000142 ) ;
#14 = ORIENTED_EDGE ( 'NONE', *, *, #250, .F. ) ;
#15 = FACE_BOUND ( 'NONE', #291, .T. ) ;
#16 = CC_DESIGN_PERSON_AND_ORGANIZATION_ASSIGNMENT ( #1, #80, ( #60 ) ) ;
#17 = LINE ( 'NONE', #94, #153 ) ;
#18 = ORIENTED_EDGE ( 'NONE', *, *, #200, .F. ) ;
#19 = DIRECTION ( 'NONE',  ( 0.000000000000000000, 0.000000000000000000, -1.000000000000000000 ) ) ;
#20 = CARTESIAN_POINT ( 'NONE',  ( 0.000000000000000000, 0.000000000000000000, 0.000000000000000000 ) ) ;
#21 = DIRECTION ( 'NONE',  ( 1.000000000000000000, 0.000000000000000000, 0.000000000000000000 ) ) ;
#22 = AXIS2_PLACEMENT_3D ( 'NONE', #141, #106, #55 ) ;
#23 = CYLINDRICAL_SURFACE ( 'NONE', #309, 33.00000000000000000 ) ;
#24 = CC_DESIGN_DATE_AND_TIME_ASSIGNMENT ( #161, #57, ( #177 ) ) ;
#25 = DIRECTION ( 'NONE',  ( -0.000000000000000000, -0.000000000000000000, -1.000000000000000000 ) ) ;
#26 = DIRECTION ( 'NONE',  ( 0.000000000000000000, 0.000000000000000000, 1.000000000000000000 ) ) ;
#27 =( GEOMETRIC_REPRESENTATION_CONTEXT ( 3 ) GLOBAL_UNCERTAINTY_ASSIGNED_CONTEXT ( ( #68 ) ) GLOBAL_UNIT_ASSIGNED_CONTEXT ( ( #227, #283, #84 ) ) REPRESENTATION_CONTEXT ( 'NONE', 'WORKASPACE' ) );
#28 = EDGE_CURVE ( 'NONE', #142, #195, #208, .T. ) ;
#29 = APPROVAL_DATE_TIME ( #137, #297 ) ;
#30 = ORIENTED_EDGE ( 'NONE', *, *, #35, .F. ) ;
#31 = DIRECTION ( 'NONE',  ( 1.000000000000000000, 0.000000000000000000, 0.000000000000000000 ) ) ;
#32 = CIRCLE ( 'NONE', #40, 35.00000000000000711 ) ;
#33 = CC_DESIGN_APPROVAL ( #10, ( #194 ) ) ;
#34 = ORIENTED_EDGE ( 'NONE', *, *, #56, .T. ) ;
#35 = EDGE_CURVE ( 'NONE', #214, #8, #13, .T. ) ;
#36 = DATE_AND_TIME ( #205, #138 ) ;
#37 = ORIENTED_EDGE ( 'NONE', *, *, #28, .T. ) ;
#38 = ORIENTED_EDGE ( 'NONE', *, *, #213, .F. ) ;
#39 = EDGE_CURVE ( 'NONE', #107, #67, #17, .T. ) ;
#40 = AXIS2_PLACEMENT_3D ( 'NONE', #150, #26, #248 ) ;
#41 = ORIENTED_EDGE ( 'NONE', *, *, #35, .T. ) ;
#42 = DIRECTION ( 'NONE',  ( -0.000000000000000000, -0.000000000000000000, 1.000000000000000000 ) ) ;
#43 = DIRECTION ( 'NONE',  ( -0.000000000000000000, -0.000000000000000000, -1.000000000000000000 ) ) ;
#44 = DIRECTION ( 'NONE',  ( 0.000000000000000000, 0.000000000000000000, 1.000000000000000000 ) ) ;
#45 = CARTESIAN_POINT ( 'NONE',  ( 0.000000000000000000, 0.000000000000000000, 30.00000000000000000 ) ) ;
#46 = AXIS2_PLACEMENT_3D ( 'NONE', #119, #247, #168 ) ;
#47 = DIRECTION ( 'NONE',  ( 0.000000000000000000, 0.000000000000000000, -1.000000000000000000 ) ) ;
#48 = DIRECTION ( 'NONE',  ( 1.000000000000000000, 0.000000000000000000, 0.000000000000000000 ) ) ;
#49 = FACE_OUTER_BOUND ( 'NONE', #234, .T. ) ;
#50 = DIRECTION ( 'NONE',  ( -1.000000000000000000, 0.000000000000000000, 0.000000000000000000 ) ) ;
#51 = CARTESIAN_POINT ( 'NONE',  ( -35.00000000000000711, 0.000000000000000000, 30.00000000000000000 ) ) ;
#52 = VERTEX_POINT ( 'NONE', #243 ) ;
#53 = AXIS2_PLACEMENT_3D ( 'NONE', #20, #44, #148 ) ;
#54 = PERSON_AND_ORGANIZATION_ROLE ( 'classification_officer' ) ;
#55 = DIRECTION ( 'NONE',  ( 1.000000000000000000, 0.000000000000000000, 0.000000000000000000 ) ) ;
#56 = EDGE_CURVE ( 'NONE', #82, #147, #6, .T. ) ;
#57 = DATE_TIME_ROLE ( 'creation_date' ) ;
#58 = CIRCLE ( 'NONE', #96, 33.00000000000000000 ) ;
#59 = ORIENTED_EDGE ( 'NONE', *, *, #39, .F. ) ;
#60 = PRODUCT ( 'R4-008', 'R4-008', '', ( #159 ) ) ;
#61 = ORIENTED_EDGE ( 'NONE', *, *, #28, .F. ) ;
#62 = CC_DESIGN_PERSON_AND_ORGANIZATION_ASSIGNMENT ( #114, #88, ( #78 ) ) ;
#63 = CYLINDRICAL_SURFACE ( 'NONE', #116, 35.00000000000000711 ) ;
#64 = DIRECTION ( 'NONE',  ( 0.000000000000000000, 0.000000000000000000, 1.000000000000000000 ) ) ;
#65 = APPROVAL_DATE_TIME ( #215, #10 ) ;
#66 = CARTESIAN_POINT ( 'NONE',  ( 28.35000000000000142, 0.000000000000000000, -4.000999999999997669 ) ) ;
#67 = VERTEX_POINT ( 'NONE', #271 ) ;
#68 = UNCERTAINTY_MEASURE_WITH_UNIT (LENGTH_MEASURE( 1.000000000000000082E-05 ), #227, 'distance_accuracy_value', 'NONE');
#69 = VERTEX_POINT ( 'NONE', #169 ) ;
#70 = EDGE_CURVE ( 'NONE', #52, #121, #192, .T. ) ;
#71 = DIRECTION ( 'NONE',  ( -0.000000000000000000, -0.000000000000000000, 1.000000000000000000 ) ) ;
#72 = AXIS2_PLACEMENT_3D ( 'NONE', #264, #117, #95 ) ;
#73 = DIRECTION ( 'NONE',  ( 1.000000000000000000, 0.000000000000000000, 0.000000000000000000 ) ) ;
#74 = DESIGN_CONTEXT ( 'detailed design', #237, 'design' ) ;
#75 = EDGE_CURVE ( 'NONE', #8, #52, #212, .T. ) ;
#76 = LINE ( 'NONE', #277, #144 ) ;
#77 = CARTESIAN_POINT ( 'NONE',  ( -28.35000000000000142, 3.471873675582746420E-15, -4.000000000000000000 ) ) ;
#78 = PRODUCT_DEFINITION_FORMATION_WITH_SPECIFIED_SOURCE ( 'ANY', '', #60, .NOT_KNOWN. ) ;
#79 = DIRECTION ( 'NONE',  ( 0.000000000000000000, 0.000000000000000000, 1.000000000000000000 ) ) ;
#80 = PERSON_AND_ORGANIZATION_ROLE ( 'design_owner' ) ;
#81 = ORIENTED_EDGE ( 'NONE', *, *, #315, .T. ) ;
#82 = VERTEX_POINT ( 'NONE', #98 ) ;
#83 = CIRCLE ( 'NONE', #128, 28.35000000000000142 ) ;
#84 =( NAMED_UNIT ( * ) SI_UNIT ( $, .STERADIAN. ) SOLID_ANGLE_UNIT ( ) );
#85 = COORDINATED_UNIVERSAL_TIME_OFFSET ( 1, 0, .AHEAD. ) ;
#86 = EDGE_CURVE ( 'NONE', #147, #82, #182, .T. ) ;
#87 = PERSON ( 'UNSPECIFIED', 'UNSPECIFIED', 'UNSPECIFIED', ('UNSPECIFIED'), ('UNSPECIFIED'), ('UNSPECIFIED') ) ;
#88 = PERSON_AND_ORGANIZATION_ROLE ( 'design_supplier' ) ;
#89 = EDGE_LOOP ( 'NONE', ( #30, #265, #120, #296 ) ) ;
#90 = AXIS2_PLACEMENT_3D ( 'NONE', #313, #19, #149 ) ;
#91 = ORIENTED_EDGE ( 'NONE', *, *, #56, .F. ) ;
#92 = DIRECTION ( 'NONE',  ( -0.000000000000000000, -0.000000000000000000, 1.000000000000000000 ) ) ;
#93 = CC_DESIGN_PERSON_AND_ORGANIZATION_ASSIGNMENT ( #282, #54, ( #194 ) ) ;
#94 = CARTESIAN_POINT ( 'NONE',  ( 33.00000000000000000, 0.000000000000000000, -4.000000000000000000 ) ) ;
#95 = DIRECTION ( 'NONE',  ( 1.000000000000000000, 0.000000000000000000, 0.000000000000000000 ) ) ;
#96 = AXIS2_PLACEMENT_3D ( 'NONE', #276, #101, #48 ) ;
#97 = ORIENTED_EDGE ( 'NONE', *, *, #70, .T. ) ;
#98 = CARTESIAN_POINT ( 'NONE',  ( 35.00000000000000711, 4.286263797015737285E-15, 0.000000000000000000 ) ) ;
#99 = FACE_OUTER_BOUND ( 'NONE', #89, .T. ) ;
#100 = VECTOR ( 'NONE', #102, 1000.000000000000000 ) ;
#101 = DIRECTION ( 'NONE',  ( -0.000000000000000000, -0.000000000000000000, -1.000000000000000000 ) ) ;
#102 = DIRECTION ( 'NONE',  ( -0.000000000000000000, -0.000000000000000000, 1.000000000000000000 ) ) ;
#103 = PLANE ( 'NONE',  #327 ) ;
#104 = CIRCLE ( 'NONE', #46, 33.00000000000000000 ) ;
#105 = DIRECTION ( 'NONE',  ( -0.000000000000000000, -0.000000000000000000, -1.000000000000000000 ) ) ;
#106 = DIRECTION ( 'NONE',  ( 0.000000000000000000, 0.000000000000000000, 1.000000000000000000 ) ) ;
#107 = VERTEX_POINT ( 'NONE', #293 ) ;
#108 = DATE_TIME_ROLE ( 'classification_date' ) ;
#109 = EDGE_CURVE ( 'NONE', #69, #107, #104, .T. ) ;
#110 = APPROVAL_PERSON_ORGANIZATION ( #185, #180, #134 ) ;
#111 = PERSON_AND_ORGANIZATION ( #87, #252 ) ;
#112 = APPROVAL_STATUS ( 'not_yet_approved' ) ;
#113 = CARTESIAN_POINT ( 'NONE',  ( 0.000000000000000000, 0.000000000000000000, 30.00000000000000000 ) ) ;
#114 = PERSON_AND_ORGANIZATION ( #87, #252 ) ;
#115 = EDGE_LOOP ( 'NONE', ( #305, #145 ) ) ;
#116 = AXIS2_PLACEMENT_3D ( 'NONE', #269, #43, #240 ) ;
#117 = DIRECTION ( 'NONE',  ( 0.000000000000000000, 0.000000000000000000, 1.000000000000000000 ) ) ;
#118 = CARTESIAN_POINT ( 'NONE',  ( 0.000000000000000000, 0.000000000000000000, -4.000999999999997669 ) ) ;
#119 = CARTESIAN_POINT ( 'NONE',  ( 0.000000000000000000, 0.000000000000000000, -4.000000000000000000 ) ) ;
#120 = ORIENTED_EDGE ( 'NONE', *, *, #325, .T. ) ;
#121 = VERTEX_POINT ( 'NONE', #311 ) ;
#122 = ADVANCED_FACE ( 'NONE', ( #196 ), #63, .T. ) ;
#123 = LOCAL_TIME ( 8, 14, 31.00000000000000000, #9 ) ;
#124 = CARTESIAN_POINT ( 'NONE',  ( 0.000000000000000000, 0.000000000000000000, 0.000000000000000000 ) ) ;
#125 = ADVANCED_FACE ( 'NONE', ( #15, #272 ), #216, .T. ) ;
#126 = ADVANCED_BREP_SHAPE_REPRESENTATION ( 'R4-008', ( #130, #22 ), #27 ) ;
#127 = CARTESIAN_POINT ( 'NONE',  ( -33.00000000000000000, 4.041334437186266200E-15, -4.000000000000000000 ) ) ;
#128 = AXIS2_PLACEMENT_3D ( 'NONE', #326, #79, #31 ) ;
#129 = DIRECTION ( 'NONE',  ( -0.000000000000000000, -0.000000000000000000, 1.000000000000000000 ) ) ;
#130 = MANIFOLD_SOLID_BREP ( 'Extrusion3', #176 ) ;
#131 = DIRECTION ( 'NONE',  ( -0.000000000000000000, -0.000000000000000000, -1.000000000000000000 ) ) ;
#132 = DIRECTION ( 'NONE',  ( -1.000000000000000000, 0.000000000000000000, 0.000000000000000000 ) ) ;
#133 = CC_DESIGN_APPROVAL ( #297, ( #78 ) ) ;
#134 = APPROVAL_ROLE ( '' ) ;
#135 = PERSON_AND_ORGANIZATION ( #87, #252 ) ;
#136 = ADVANCED_FACE ( 'NONE', ( #220 ), #320, .T. ) ;
#137 = DATE_AND_TIME ( #257, #123 ) ;
#138 = LOCAL_TIME ( 8, 14, 31.00000000000000000, #230 ) ;
#139 = CIRCLE ( 'NONE', #290, 33.00000000000000000 ) ;
#140 = EDGE_LOOP ( 'NONE', ( #317, #186, #235, #97 ) ) ;
#141 = CARTESIAN_POINT ( 'NONE',  ( 0.000000000000000000, 0.000000000000000000, 0.000000000000000000 ) ) ;
#142 = VERTEX_POINT ( 'NONE', #51 ) ;
#143 = ORIENTED_EDGE ( 'NONE', *, *, #299, .T. ) ;
#144 = VECTOR ( 'NONE', #105, 1000.000000000000000 ) ;
#145 = ORIENTED_EDGE ( 'NONE', *, *, #325, .F. ) ;
#146 = ADVANCED_FACE ( 'NONE', ( #204 ), #23, .T. ) ;
#147 = VERTEX_POINT ( 'NONE', #171 ) ;
#148 = DIRECTION ( 'NONE',  ( 1.000000000000000000, 0.000000000000000000, 0.000000000000000000 ) ) ;
#149 = DIRECTION ( 'NONE',  ( -1.000000000000000000, 0.000000000000000000, -0.000000000000000000 ) ) ;
#150 = CARTESIAN_POINT ( 'NONE',  ( 0.000000000000000000, 0.000000000000000000, 30.00000000000000000 ) ) ;
#151 = CYLINDRICAL_SURFACE ( 'NONE', #244, 33.00000000000000000 ) ;
#152 = CARTESIAN_POINT ( 'NONE',  ( -33.00000000000000000, 4.041334437186266200E-15, 0.000000000000000000 ) ) ;
#153 = VECTOR ( 'NONE', #42, 1000.000000000000000 ) ;
#154 = CARTESIAN_POINT ( 'NONE',  ( 0.000000000000000000, 0.000000000000000000, 0.000000000000000000 ) ) ;
#155 = EDGE_CURVE ( 'NONE', #8, #214, #273, .T. ) ;
#156 = FACE_BOUND ( 'NONE', #292, .T. ) ;
#157 = COORDINATED_UNIVERSAL_TIME_OFFSET ( 1, 0, .AHEAD. ) ;
#158 = AXIS2_PLACEMENT_3D ( 'NONE', #118, #92, #189 ) ;
#159 = MECHANICAL_CONTEXT ( 'NONE', #329, 'mechanical' ) ;
#160 = APPROVAL_ROLE ( '' ) ;
#161 = DATE_AND_TIME ( #181, #219 ) ;
#162 = ORIENTED_EDGE ( 'NONE', *, *, #190, .F. ) ;
#163 = EDGE_LOOP ( 'NONE', ( #228, #3, #34, #162 ) ) ;
#164 = SHAPE_DEFINITION_REPRESENTATION ( #270, #126 ) ;
#165 = CARTESIAN_POINT ( 'NONE',  ( 0.000000000000000000, 0.000000000000000000, 0.000000000000000000 ) ) ;
#166 = CARTESIAN_POINT ( 'NONE',  ( 0.000000000000000000, 0.000000000000000000, -4.000000000000000000 ) ) ;
#167 = ORIENTED_EDGE ( 'NONE', *, *, #299, .F. ) ;
#168 = DIRECTION ( 'NONE',  ( -1.000000000000000000, 0.000000000000000000, 0.000000000000000000 ) ) ;
#169 = CARTESIAN_POINT ( 'NONE',  ( -33.00000000000000000, 4.041334437186266200E-15, -4.000000000000000000 ) ) ;
#170 = DIRECTION ( 'NONE',  ( 1.000000000000000000, 0.000000000000000000, 0.000000000000000000 ) ) ;
#171 = CARTESIAN_POINT ( 'NONE',  ( -35.00000000000000711, 0.000000000000000000, 0.000000000000000000 ) ) ;
#172 = AXIS2_PLACEMENT_3D ( 'NONE', #304, #47, #321 ) ;
#173 = DIRECTION ( 'NONE',  ( -0.000000000000000000, -0.000000000000000000, 1.000000000000000000 ) ) ;
#174 = DIRECTION ( 'NONE',  ( -0.000000000000000000, -0.000000000000000000, 1.000000000000000000 ) ) ;
#175 = DIRECTION ( 'NONE',  ( 1.000000000000000000, 0.000000000000000000, -0.000000000000000000 ) ) ;
#176 = CLOSED_SHELL ( 'NONE', ( #287, #146, #136, #223, #122, #245, #306, #125, #2 ) ) ;
#177 = PRODUCT_DEFINITION ( 'UNKNOWN', '', #78, #74 ) ;
#178 = CARTESIAN_POINT ( 'NONE',  ( -28.35000000000000142, 3.471873675582746420E-15, -4.000999999999997669 ) ) ;
#179 = APPROVAL_ROLE ( '' ) ;
#180 = APPROVAL ( #112, 'UNSPECIFIED' ) ;
#181 = CALENDAR_DATE ( 2022, 1, 7 ) ;
#182 = CIRCLE ( 'NONE', #198, 35.00000000000000711 ) ;
#183 = ORIENTED_EDGE ( 'NONE', *, *, #275, .T. ) ;
#184 = APPLICATION_PROTOCOL_DEFINITION ( 'international standard', 'config_control_design', 1994, #237 ) ;
#185 = PERSON_AND_ORGANIZATION ( #87, #252 ) ;
#186 = ORIENTED_EDGE ( 'NONE', *, *, #155, .F. ) ;
#187 = AXIS2_PLACEMENT_3D ( 'NONE', #45, #25, #132 ) ;
#188 = ORIENTED_EDGE ( 'NONE', *, *, #39, .T. ) ;
#189 = DIRECTION ( 'NONE',  ( 1.000000000000000000, 0.000000000000000000, 0.000000000000000000 ) ) ;
#190 = EDGE_CURVE ( 'NONE', #142, #147, #76, .T. ) ;
#191 = ORIENTED_EDGE ( 'NONE', *, *, #86, .F. ) ;
#192 = CIRCLE ( 'NONE', #72, 28.35000000000000142 ) ;
#193 = DIRECTION ( 'NONE',  ( 0.000000000000000000, 0.000000000000000000, 1.000000000000000000 ) ) ;
#194 = SECURITY_CLASSIFICATION ( '', '', #5 ) ;
#195 = VERTEX_POINT ( 'NONE', #226 ) ;
#196 = FACE_OUTER_BOUND ( 'NONE', #298, .T. ) ;
#197 = CARTESIAN_POINT ( 'NONE',  ( 35.00000000000000711, 4.286263797015737285E-15, 30.00000000000000000 ) ) ;
#198 = AXIS2_PLACEMENT_3D ( 'NONE', #165, #193, #170 ) ;
#199 = LINE ( 'NONE', #197, #300 ) ;
#200 = EDGE_CURVE ( 'NONE', #195, #82, #199, .T. ) ;
#201 = DIRECTION ( 'NONE',  ( -0.000000000000000000, -0.000000000000000000, 1.000000000000000000 ) ) ;
#202 = LINE ( 'NONE', #127, #322 ) ;
#203 = AXIS2_PLACEMENT_3D ( 'NONE', #280, #71, #50 ) ;
#204 = FACE_OUTER_BOUND ( 'NONE', #242, .T. ) ;
#205 = CALENDAR_DATE ( 2022, 1, 7 ) ;
#206 = EDGE_LOOP ( 'NONE', ( #38, #14, #188, #81 ) ) ;
#207 = APPLICATION_PROTOCOL_DEFINITION ( 'international standard', 'config_control_design', 1994, #329 ) ;
#208 = CIRCLE ( 'NONE', #318, 35.00000000000000711 ) ;
#209 = APPROVAL_STATUS ( 'not_yet_approved' ) ;
#210 = DIRECTION ( 'NONE',  ( 1.000000000000000000, 0.000000000000000000, 0.000000000000000000 ) ) ;
#211 = ORIENTED_EDGE ( 'NONE', *, *, #190, .T. ) ;
#212 = LINE ( 'NONE', #66, #256 ) ;
#213 = EDGE_CURVE ( 'NONE', #69, #258, #202, .T. ) ;
#214 = VERTEX_POINT ( 'NONE', #77 ) ;
#215 = DATE_AND_TIME ( #12, #285 ) ;
#216 = PLANE ( 'NONE',  #90 ) ;
#217 = ORIENTED_EDGE ( 'NONE', *, *, #213, .T. ) ;
#218 = ORIENTED_EDGE ( 'NONE', *, *, #109, .F. ) ;
#219 = LOCAL_TIME ( 8, 14, 31.00000000000000000, #85 ) ;
#220 = FACE_OUTER_BOUND ( 'NONE', #163, .T. ) ;
#221 = LINE ( 'NONE', #178, #100 ) ;
#222 = FACE_BOUND ( 'NONE', #115, .T. ) ;
#223 = ADVANCED_FACE ( 'NONE', ( #49, #156 ), #103, .F. ) ;
#224 = CARTESIAN_POINT ( 'NONE',  ( 0.000000000000000000, 0.000000000000000000, -4.000000000000000000 ) ) ;
#225 = DIRECTION ( 'NONE',  ( 1.000000000000000000, 0.000000000000000000, 0.000000000000000000 ) ) ;
#226 = CARTESIAN_POINT ( 'NONE',  ( 35.00000000000000711, 4.286263797015737285E-15, 30.00000000000000000 ) ) ;
#227 =( LENGTH_UNIT ( ) NAMED_UNIT ( * ) SI_UNIT ( .MILLI., .METRE. ) );
#228 = ORIENTED_EDGE ( 'NONE', *, *, #275, .F. ) ;
#229 = PERSON_AND_ORGANIZATION ( #87, #252 ) ;
#230 = COORDINATED_UNIVERSAL_TIME_OFFSET ( 1, 0, .AHEAD. ) ;
#231 = AXIS2_PLACEMENT_3D ( 'NONE', #166, #314, #266 ) ;
#232 = CC_DESIGN_PERSON_AND_ORGANIZATION_ASSIGNMENT ( #135, #307, ( #78 ) ) ;
#233 = CC_DESIGN_DATE_AND_TIME_ASSIGNMENT ( #255, #108, ( #194 ) ) ;
#234 = EDGE_LOOP ( 'NONE', ( #191, #91 ) ) ;
#235 = ORIENTED_EDGE ( 'NONE', *, *, #75, .T. ) ;
#236 = EDGE_CURVE ( 'NONE', #214, #121, #221, .T. ) ;
#237 = APPLICATION_CONTEXT ( 'configuration controlled 3d designs of mechanical parts and assemblies' ) ;
#238 = FACE_OUTER_BOUND ( 'NONE', #140, .T. ) ;
#239 = CIRCLE ( 'NONE', #172, 33.00000000000000000 ) ;
#240 = DIRECTION ( 'NONE',  ( -1.000000000000000000, 0.000000000000000000, 0.000000000000000000 ) ) ;
#241 = ORIENTED_EDGE ( 'NONE', *, *, #250, .T. ) ;
#242 = EDGE_LOOP ( 'NONE', ( #218, #217, #143, #59 ) ) ;
#243 = CARTESIAN_POINT ( 'NONE',  ( 28.35000000000000142, 0.000000000000000000, 30.00000000000000000 ) ) ;
#244 = AXIS2_PLACEMENT_3D ( 'NONE', #224, #201, #303 ) ;
#245 = ADVANCED_FACE ( 'NONE', ( #222, #328 ), #253, .T. ) ;
#246 = APPROVAL_PERSON_ORGANIZATION ( #111, #10, #160 ) ;
#247 = DIRECTION ( 'NONE',  ( 0.000000000000000000, 0.000000000000000000, -1.000000000000000000 ) ) ;
#248 = DIRECTION ( 'NONE',  ( 1.000000000000000000, 0.000000000000000000, 0.000000000000000000 ) ) ;
#249 = DIRECTION ( 'NONE',  ( 0.000000000000000000, 0.000000000000000000, 1.000000000000000000 ) ) ;
#250 = EDGE_CURVE ( 'NONE', #107, #69, #239, .T. ) ;
#251 = CARTESIAN_POINT ( 'NONE',  ( 0.000000000000000000, 0.000000000000000000, -4.000999999999997669 ) ) ;
#252 = ORGANIZATION ( 'UNSPECIFIED', 'UNSPECIFIED', '' ) ;
#253 = PLANE ( 'NONE',  #284 ) ;
#254 = DIRECTION ( 'NONE',  ( 0.000000000000000000, 0.000000000000000000, 1.000000000000000000 ) ) ;
#255 = DATE_AND_TIME ( #4, #261 ) ;
#256 = VECTOR ( 'NONE', #267, 1000.000000000000000 ) ;
#257 = CALENDAR_DATE ( 2022, 1, 7 ) ;
#258 = VERTEX_POINT ( 'NONE', #152 ) ;
#259 = CC_DESIGN_PERSON_AND_ORGANIZATION_ASSIGNMENT ( #288, #7, ( #177 ) ) ;
#260 = APPROVAL_PERSON_ORGANIZATION ( #229, #297, #179 ) ;
#261 = LOCAL_TIME ( 8, 14, 31.00000000000000000, #157 ) ;
#262 = EDGE_LOOP ( 'NONE', ( #37, #183 ) ) ;
#263 = EDGE_LOOP ( 'NONE', ( #241, #312 ) ) ;
#264 = CARTESIAN_POINT ( 'NONE',  ( 0.000000000000000000, 0.000000000000000000, 30.00000000000000000 ) ) ;
#265 = ORIENTED_EDGE ( 'NONE', *, *, #236, .T. ) ;
#266 = DIRECTION ( 'NONE',  ( -1.000000000000000000, 0.000000000000000000, 0.000000000000000000 ) ) ;
#267 = DIRECTION ( 'NONE',  ( -0.000000000000000000, -0.000000000000000000, 1.000000000000000000 ) ) ;
#268 = ORIENTED_EDGE ( 'NONE', *, *, #155, .T. ) ;
#269 = CARTESIAN_POINT ( 'NONE',  ( 0.000000000000000000, 0.000000000000000000, 30.00000000000000000 ) ) ;
#270 = PRODUCT_DEFINITION_SHAPE ( 'NONE', 'NONE',  #177 ) ;
#271 = CARTESIAN_POINT ( 'NONE',  ( 33.00000000000000000, 0.000000000000000000, 0.000000000000000000 ) ) ;
#272 = FACE_OUTER_BOUND ( 'NONE', #263, .T. ) ;
#273 = CIRCLE ( 'NONE', #203, 28.35000000000000142 ) ;
#274 = DIRECTION ( 'NONE',  ( 1.000000000000000000, 0.000000000000000000, -0.000000000000000000 ) ) ;
#275 = EDGE_CURVE ( 'NONE', #195, #142, #32, .T. ) ;
#276 = CARTESIAN_POINT ( 'NONE',  ( 0.000000000000000000, 0.000000000000000000, 0.000000000000000000 ) ) ;
#277 = CARTESIAN_POINT ( 'NONE',  ( -35.00000000000000711, 0.000000000000000000, 30.00000000000000000 ) ) ;
#278 = FACE_OUTER_BOUND ( 'NONE', #206, .T. ) ;
#279 = AXIS2_PLACEMENT_3D ( 'NONE', #251, #129, #73 ) ;
#280 = CARTESIAN_POINT ( 'NONE',  ( 0.000000000000000000, 0.000000000000000000, -4.000000000000000000 ) ) ;
#281 = PRODUCT_RELATED_PRODUCT_CATEGORY ( 'detail', '', ( #60 ) ) ;
#282 = PERSON_AND_ORGANIZATION ( #87, #252 ) ;
#283 =( NAMED_UNIT ( * ) PLANE_ANGLE_UNIT ( ) SI_UNIT ( $, .RADIAN. ) );
#284 = AXIS2_PLACEMENT_3D ( 'NONE', #323, #254, #274 ) ;
#285 = LOCAL_TIME ( 8, 14, 31.00000000000000000, #295 ) ;
#286 = APPROVAL_DATE_TIME ( #36, #180 ) ;
#287 = ADVANCED_FACE ( 'NONE', ( #99 ), #301, .F. ) ;
#288 = PERSON_AND_ORGANIZATION ( #87, #252 ) ;
#289 = APPROVAL_STATUS ( 'not_yet_approved' ) ;
#290 = AXIS2_PLACEMENT_3D ( 'NONE', #154, #131, #225 ) ;
#291 = EDGE_LOOP ( 'NONE', ( #268, #41 ) ) ;
#292 = EDGE_LOOP ( 'NONE', ( #310, #167 ) ) ;
#293 = CARTESIAN_POINT ( 'NONE',  ( 33.00000000000000000, 0.000000000000000000, -4.000000000000000000 ) ) ;
#294 = CARTESIAN_POINT ( 'NONE',  ( 28.35000000000000142, 0.000000000000000000, -4.000000000000000000 ) ) ;
#295 = COORDINATED_UNIVERSAL_TIME_OFFSET ( 1, 0, .AHEAD. ) ;
#296 = ORIENTED_EDGE ( 'NONE', *, *, #75, .F. ) ;
#297 = APPROVAL ( #289, 'UNSPECIFIED' ) ;
#298 = EDGE_LOOP ( 'NONE', ( #18, #61, #211, #308 ) ) ;
#299 = EDGE_CURVE ( 'NONE', #258, #67, #58, .T. ) ;
#300 = VECTOR ( 'NONE', #324, 1000.000000000000000 ) ;
#301 = CYLINDRICAL_SURFACE ( 'NONE', #279, 28.35000000000000142 ) ;
#302 = CARTESIAN_POINT ( 'NONE',  ( 0.000000000000000000, 0.000000000000000000, -4.000000000000000000 ) ) ;
#303 = DIRECTION ( 'NONE',  ( 1.000000000000000000, 0.000000000000000000, 0.000000000000000000 ) ) ;
#304 = CARTESIAN_POINT ( 'NONE',  ( 0.000000000000000000, 0.000000000000000000, -4.000000000000000000 ) ) ;
#305 = ORIENTED_EDGE ( 'NONE', *, *, #70, .F. ) ;
#306 = ADVANCED_FACE ( 'NONE', ( #278 ), #151, .T. ) ;
#307 = PERSON_AND_ORGANIZATION_ROLE ( 'creator' ) ;
#308 = ORIENTED_EDGE ( 'NONE', *, *, #86, .T. ) ;
#309 = AXIS2_PLACEMENT_3D ( 'NONE', #302, #173, #21 ) ;
#310 = ORIENTED_EDGE ( 'NONE', *, *, #315, .F. ) ;
#311 = CARTESIAN_POINT ( 'NONE',  ( -28.35000000000000142, 3.471873675582746420E-15, 30.00000000000000000 ) ) ;
#312 = ORIENTED_EDGE ( 'NONE', *, *, #109, .T. ) ;
#313 = CARTESIAN_POINT ( 'NONE',  ( 0.000000000000000000, 0.000000000000000000, -4.000000000000000000 ) ) ;
#314 = DIRECTION ( 'NONE',  ( -0.000000000000000000, -0.000000000000000000, 1.000000000000000000 ) ) ;
#315 = EDGE_CURVE ( 'NONE', #67, #258, #139, .T. ) ;
#316 = CC_DESIGN_APPROVAL ( #180, ( #177 ) ) ;
#317 = ORIENTED_EDGE ( 'NONE', *, *, #236, .F. ) ;
#318 = AXIS2_PLACEMENT_3D ( 'NONE', #113, #64, #210 ) ;
#319 = CC_DESIGN_SECURITY_CLASSIFICATION ( #194, ( #78 ) ) ;
#320 = CYLINDRICAL_SURFACE ( 'NONE', #187, 35.00000000000000711 ) ;
#321 = DIRECTION ( 'NONE',  ( -1.000000000000000000, 0.000000000000000000, 0.000000000000000000 ) ) ;
#322 = VECTOR ( 'NONE', #174, 1000.000000000000000 ) ;
#323 = CARTESIAN_POINT ( 'NONE',  ( 0.000000000000000000, 0.000000000000000000, 30.00000000000000000 ) ) ;
#324 = DIRECTION ( 'NONE',  ( -0.000000000000000000, -0.000000000000000000, -1.000000000000000000 ) ) ;
#325 = EDGE_CURVE ( 'NONE', #121, #52, #83, .T. ) ;
#326 = CARTESIAN_POINT ( 'NONE',  ( 0.000000000000000000, 0.000000000000000000, 30.00000000000000000 ) ) ;
#327 = AXIS2_PLACEMENT_3D ( 'NONE', #124, #249, #175 ) ;
#328 = FACE_OUTER_BOUND ( 'NONE', #262, .T. ) ;
#329 = APPLICATION_CONTEXT ( 'configuration controlled 3d designs of mechanical parts and assemblies' ) ;
ENDSEC;
END-ISO-10303-21;
