ISO-10303-21;
HEADER;
FILE_DESCRIPTION (( 'STEP AP203' ),
    '1' );
FILE_NAME ('R4-009.STEP',
    '2022-07-01T06:14:57',
    ( '' ),
    ( '' ),
    'SwSTEP 2.0',
    'SolidWorks 2022',
    '' );
FILE_SCHEMA (( 'CONFIG_CONTROL_DESIGN' ));
ENDSEC;

DATA;
#1 = DIRECTION ( 'NONE',  ( 1.000000000000000000, 0.000000000000000000, 0.000000000000000000 ) ) ;
#2 =( NAMED_UNIT ( * ) SI_UNIT ( $, .STERADIAN. ) SOLID_ANGLE_UNIT ( ) );
#3 = PERSON_AND_ORGANIZATION ( #166, #303 ) ;
#4 = CC_DESIGN_PERSON_AND_ORGANIZATION_ASSIGNMENT ( #99, #29, ( #170 ) ) ;
#5 =( GEOMETRIC_REPRESENTATION_CONTEXT ( 3 ) GLOBAL_UNCERTAINTY_ASSIGNED_CONTEXT ( ( #285 ) ) GLOBAL_UNIT_ASSIGNED_CONTEXT ( ( #253, #228, #2 ) ) REPRESENTATION_CONTEXT ( 'NONE', 'WORKASPACE' ) );
#6 = EDGE_CURVE ( 'NONE', #194, #328, #304, .T. ) ;
#7 = PERSON_AND_ORGANIZATION ( #166, #303 ) ;
#8 = CIRCLE ( 'NONE', #312, 45.00000000000000711 ) ;
#9 = AXIS2_PLACEMENT_3D ( 'NONE', #137, #145, #120 ) ;
#10 = CARTESIAN_POINT ( 'NONE',  ( -41.00000000000000000, 5.021051876504148963E-15, 0.000000000000000000 ) ) ;
#11 = DIRECTION ( 'NONE',  ( 1.000000000000000000, 0.000000000000000000, -0.000000000000000000 ) ) ;
#12 = EDGE_CURVE ( 'NONE', #239, #290, #22, .T. ) ;
#13 = CARTESIAN_POINT ( 'NONE',  ( 0.000000000000000000, 0.000000000000000000, 35.00000000000000000 ) ) ;
#14 = AXIS2_PLACEMENT_3D ( 'NONE', #255, #147, #180 ) ;
#15 = DESIGN_CONTEXT ( 'detailed design', #58, 'design' ) ;
#16 = ORIENTED_EDGE ( 'NONE', *, *, #201, .F. ) ;
#17 = LINE ( 'NONE', #106, #219 ) ;
#18 = DIRECTION ( 'NONE',  ( 0.000000000000000000, 0.000000000000000000, 1.000000000000000000 ) ) ;
#19 = ORIENTED_EDGE ( 'NONE', *, *, #56, .F. ) ;
#20 = FACE_BOUND ( 'NONE', #93, .T. ) ;
#21 = ORIENTED_EDGE ( 'NONE', *, *, #12, .T. ) ;
#22 = CIRCLE ( 'NONE', #77, 36.14999999999999858 ) ;
#23 = EDGE_LOOP ( 'NONE', ( #88, #37 ) ) ;
#24 = DIRECTION ( 'NONE',  ( 1.000000000000000000, 0.000000000000000000, 0.000000000000000000 ) ) ;
#25 = CARTESIAN_POINT ( 'NONE',  ( 0.000000000000000000, 0.000000000000000000, 0.000000000000000000 ) ) ;
#26 = COORDINATED_UNIVERSAL_TIME_OFFSET ( 1, 0, .AHEAD. ) ;
#27 = PERSON_AND_ORGANIZATION_ROLE ( 'classification_officer' ) ;
#28 = CC_DESIGN_PERSON_AND_ORGANIZATION_ASSIGNMENT ( #3, #52, ( #107 ) ) ;
#29 = PERSON_AND_ORGANIZATION_ROLE ( 'design_owner' ) ;
#30 = AXIS2_PLACEMENT_3D ( 'NONE', #130, #59, #238 ) ;
#31 = CARTESIAN_POINT ( 'NONE',  ( 0.000000000000000000, 0.000000000000000000, 0.000000000000000000 ) ) ;
#32 = DIRECTION ( 'NONE',  ( -0.000000000000000000, -0.000000000000000000, 1.000000000000000000 ) ) ;
#33 = PRODUCT_DEFINITION ( 'UNKNOWN', '', #107, #15 ) ;
#34 = CALENDAR_DATE ( 2022, 1, 7 ) ;
#35 = EDGE_CURVE ( 'NONE', #296, #242, #286, .T. ) ;
#36 = DIRECTION ( 'NONE',  ( 1.000000000000000000, 0.000000000000000000, 0.000000000000000000 ) ) ;
#37 = ORIENTED_EDGE ( 'NONE', *, *, #35, .T. ) ;
#38 = CYLINDRICAL_SURFACE ( 'NONE', #313, 41.00000000000000000 ) ;
#39 = ORIENTED_EDGE ( 'NONE', *, *, #94, .T. ) ;
#40 = DIRECTION ( 'NONE',  ( -0.000000000000000000, -0.000000000000000000, 1.000000000000000000 ) ) ;
#41 = EDGE_LOOP ( 'NONE', ( #268, #215, #295, #183 ) ) ;
#42 = FACE_OUTER_BOUND ( 'NONE', #23, .T. ) ;
#43 = EDGE_LOOP ( 'NONE', ( #80, #39, #222, #288 ) ) ;
#44 = DIRECTION ( 'NONE',  ( -0.000000000000000000, -0.000000000000000000, 1.000000000000000000 ) ) ;
#45 = AXIS2_PLACEMENT_3D ( 'NONE', #135, #18, #11 ) ;
#46 = DIRECTION ( 'NONE',  ( 1.000000000000000000, 0.000000000000000000, 0.000000000000000000 ) ) ;
#47 = ORIENTED_EDGE ( 'NONE', *, *, #152, .T. ) ;
#48 = CARTESIAN_POINT ( 'NONE',  ( 0.000000000000000000, 0.000000000000000000, -4.000000000000000000 ) ) ;
#49 = CALENDAR_DATE ( 2022, 1, 7 ) ;
#50 = COORDINATED_UNIVERSAL_TIME_OFFSET ( 1, 0, .AHEAD. ) ;
#51 = ADVANCED_FACE ( 'NONE', ( #174 ), #224, .T. ) ;
#52 = PERSON_AND_ORGANIZATION_ROLE ( 'creator' ) ;
#53 = CARTESIAN_POINT ( 'NONE',  ( -36.14999999999999858, 4.427098178917682074E-15, -4.000000000000000000 ) ) ;
#54 = AXIS2_PLACEMENT_3D ( 'NONE', #287, #112, #211 ) ;
#55 = CARTESIAN_POINT ( 'NONE',  ( -45.00000000000000711, 0.000000000000000000, 35.00000000000000000 ) ) ;
#56 = EDGE_CURVE ( 'NONE', #191, #197, #206, .T. ) ;
#57 = ADVANCED_FACE ( 'NONE', ( #97, #42 ), #167, .T. ) ;
#58 = APPLICATION_CONTEXT ( 'configuration controlled 3d designs of mechanical parts and assemblies' ) ;
#59 = DIRECTION ( 'NONE',  ( 0.000000000000000000, 0.000000000000000000, 1.000000000000000000 ) ) ;
#60 = DIRECTION ( 'NONE',  ( -0.000000000000000000, -0.000000000000000000, -1.000000000000000000 ) ) ;
#61 = ORIENTED_EDGE ( 'NONE', *, *, #138, .F. ) ;
#62 = DATE_AND_TIME ( #124, #125 ) ;
#63 = CC_DESIGN_APPROVAL ( #233, ( #212 ) ) ;
#64 = CARTESIAN_POINT ( 'NONE',  ( 36.14999999999999858, 0.000000000000000000, 35.00000000000000000 ) ) ;
#65 = EDGE_LOOP ( 'NONE', ( #86, #164 ) ) ;
#66 = DIRECTION ( 'NONE',  ( -0.000000000000000000, -0.000000000000000000, -1.000000000000000000 ) ) ;
#67 = APPLICATION_CONTEXT ( 'configuration controlled 3d designs of mechanical parts and assemblies' ) ;
#68 = ORIENTED_EDGE ( 'NONE', *, *, #138, .T. ) ;
#69 = DIRECTION ( 'NONE',  ( -0.000000000000000000, -0.000000000000000000, 1.000000000000000000 ) ) ;
#70 = CARTESIAN_POINT ( 'NONE',  ( 0.000000000000000000, 0.000000000000000000, 35.00000000000000000 ) ) ;
#71 = DIRECTION ( 'NONE',  ( 0.000000000000000000, 0.000000000000000000, 1.000000000000000000 ) ) ;
#72 = CC_DESIGN_DATE_AND_TIME_ASSIGNMENT ( #305, #311, ( #33 ) ) ;
#73 = AXIS2_PLACEMENT_3D ( 'NONE', #131, #256, #108 ) ;
#74 = CARTESIAN_POINT ( 'NONE',  ( 0.000000000000000000, 0.000000000000000000, 35.00000000000000000 ) ) ;
#75 = PERSON_AND_ORGANIZATION ( #166, #303 ) ;
#76 = COORDINATED_UNIVERSAL_TIME_OFFSET ( 1, 0, .AHEAD. ) ;
#77 = AXIS2_PLACEMENT_3D ( 'NONE', #249, #71, #1 ) ;
#78 = VECTOR ( 'NONE', #60, 1000.000000000000000 ) ;
#79 = DIRECTION ( 'NONE',  ( -1.000000000000000000, 0.000000000000000000, 0.000000000000000000 ) ) ;
#80 = ORIENTED_EDGE ( 'NONE', *, *, #35, .F. ) ;
#81 = CC_DESIGN_PERSON_AND_ORGANIZATION_ASSIGNMENT ( #307, #27, ( #212 ) ) ;
#82 = ADVANCED_FACE ( 'NONE', ( #20, #114 ), #227, .T. ) ;
#83 = CYLINDRICAL_SURFACE ( 'NONE', #73, 36.14999999999999858 ) ;
#84 = DIRECTION ( 'NONE',  ( -0.000000000000000000, -0.000000000000000000, 1.000000000000000000 ) ) ;
#85 = CARTESIAN_POINT ( 'NONE',  ( 0.000000000000000000, 0.000000000000000000, -4.000000000000000000 ) ) ;
#86 = ORIENTED_EDGE ( 'NONE', *, *, #140, .T. ) ;
#87 = CARTESIAN_POINT ( 'NONE',  ( 45.00000000000000711, 5.510910596163090344E-15, 35.00000000000000000 ) ) ;
#88 = ORIENTED_EDGE ( 'NONE', *, *, #257, .T. ) ;
#89 = DIRECTION ( 'NONE',  ( 1.000000000000000000, 0.000000000000000000, -0.000000000000000000 ) ) ;
#90 = ORIENTED_EDGE ( 'NONE', *, *, #12, .F. ) ;
#91 = DATE_TIME_ROLE ( 'classification_date' ) ;
#92 = LINE ( 'NONE', #299, #252 ) ;
#93 = EDGE_LOOP ( 'NONE', ( #90, #274 ) ) ;
#94 = EDGE_CURVE ( 'NONE', #296, #191, #92, .T. ) ;
#95 = ORIENTED_EDGE ( 'NONE', *, *, #104, .F. ) ;
#96 = EDGE_CURVE ( 'NONE', #136, #217, #122, .T. ) ;
#97 = FACE_BOUND ( 'NONE', #142, .T. ) ;
#98 = AXIS2_PLACEMENT_3D ( 'NONE', #31, #190, #157 ) ;
#99 = PERSON_AND_ORGANIZATION ( #166, #303 ) ;
#100 = PERSON_AND_ORGANIZATION_ROLE ( 'design_supplier' ) ;
#101 = COORDINATED_UNIVERSAL_TIME_OFFSET ( 1, 0, .AHEAD. ) ;
#102 = VECTOR ( 'NONE', #198, 1000.000000000000000 ) ;
#103 = APPROVAL_ROLE ( '' ) ;
#104 = EDGE_CURVE ( 'NONE', #217, #239, #146, .T. ) ;
#105 = FACE_OUTER_BOUND ( 'NONE', #244, .T. ) ;
#106 = CARTESIAN_POINT ( 'NONE',  ( 41.00000000000000000, 0.000000000000000000, -4.000000000000000000 ) ) ;
#107 = PRODUCT_DEFINITION_FORMATION_WITH_SPECIFIED_SOURCE ( 'ANY', '', #170, .NOT_KNOWN. ) ;
#108 = DIRECTION ( 'NONE',  ( 1.000000000000000000, 0.000000000000000000, 0.000000000000000000 ) ) ;
#109 = ORIENTED_EDGE ( 'NONE', *, *, #96, .T. ) ;
#110 = DIRECTION ( 'NONE',  ( -0.000000000000000000, -0.000000000000000000, 1.000000000000000000 ) ) ;
#111 = ORIENTED_EDGE ( 'NONE', *, *, #104, .T. ) ;
#112 = DIRECTION ( 'NONE',  ( 0.000000000000000000, 0.000000000000000000, -1.000000000000000000 ) ) ;
#113 = ORIENTED_EDGE ( 'NONE', *, *, #300, .F. ) ;
#114 = FACE_OUTER_BOUND ( 'NONE', #65, .T. ) ;
#115 = CIRCLE ( 'NONE', #98, 41.00000000000000000 ) ;
#116 = EDGE_LOOP ( 'NONE', ( #139, #266, #207, #326 ) ) ;
#117 = ADVANCED_FACE ( 'NONE', ( #258 ), #38, .T. ) ;
#118 = CYLINDRICAL_SURFACE ( 'NONE', #237, 41.00000000000000000 ) ;
#119 = CARTESIAN_POINT ( 'NONE',  ( -45.00000000000000711, 0.000000000000000000, 35.00000000000000000 ) ) ;
#120 = DIRECTION ( 'NONE',  ( -1.000000000000000000, 0.000000000000000000, -0.000000000000000000 ) ) ;
#121 = CIRCLE ( 'NONE', #324, 36.14999999999999858 ) ;
#122 = CIRCLE ( 'NONE', #308, 36.14999999999999858 ) ;
#123 = DATE_AND_TIME ( #49, #280 ) ;
#124 = CALENDAR_DATE ( 2022, 1, 7 ) ;
#125 = LOCAL_TIME ( 8, 14, 57.00000000000000000, #101 ) ;
#126 = CC_DESIGN_PERSON_AND_ORGANIZATION_ASSIGNMENT ( #277, #151, ( #33 ) ) ;
#127 = EDGE_LOOP ( 'NONE', ( #282, #262, #293, #260 ) ) ;
#128 = AXIS2_PLACEMENT_3D ( 'NONE', #163, #155, #213 ) ;
#129 = AXIS2_PLACEMENT_3D ( 'NONE', #25, #243, #322 ) ;
#130 = CARTESIAN_POINT ( 'NONE',  ( 0.000000000000000000, 0.000000000000000000, 35.00000000000000000 ) ) ;
#131 = CARTESIAN_POINT ( 'NONE',  ( 0.000000000000000000, 0.000000000000000000, -4.000999999999997669 ) ) ;
#132 = DATE_AND_TIME ( #34, #185 ) ;
#133 = CARTESIAN_POINT ( 'NONE',  ( -36.14999999999999858, 4.427098178917682074E-15, 35.00000000000000000 ) ) ;
#134 = DIRECTION ( 'NONE',  ( 1.000000000000000000, 0.000000000000000000, 0.000000000000000000 ) ) ;
#135 = CARTESIAN_POINT ( 'NONE',  ( 0.000000000000000000, 0.000000000000000000, 0.000000000000000000 ) ) ;
#136 = VERTEX_POINT ( 'NONE', #53 ) ;
#137 = CARTESIAN_POINT ( 'NONE',  ( 0.000000000000000000, 0.000000000000000000, -4.000000000000000000 ) ) ;
#138 = EDGE_CURVE ( 'NONE', #136, #290, #182, .T. ) ;
#139 = ORIENTED_EDGE ( 'NONE', *, *, #209, .F. ) ;
#140 = EDGE_CURVE ( 'NONE', #194, #247, #143, .T. ) ;
#141 = CC_DESIGN_APPROVAL ( #187, ( #33 ) ) ;
#142 = EDGE_LOOP ( 'NONE', ( #319, #109 ) ) ;
#143 = CIRCLE ( 'NONE', #149, 45.00000000000000711 ) ;
#144 = CARTESIAN_POINT ( 'NONE',  ( 45.00000000000000711, 5.510910596163090344E-15, 0.000000000000000000 ) ) ;
#145 = DIRECTION ( 'NONE',  ( 0.000000000000000000, 0.000000000000000000, -1.000000000000000000 ) ) ;
#146 = LINE ( 'NONE', #315, #178 ) ;
#147 = DIRECTION ( 'NONE',  ( 0.000000000000000000, 0.000000000000000000, 1.000000000000000000 ) ) ;
#148 = AXIS2_PLACEMENT_3D ( 'NONE', #281, #259, #36 ) ;
#149 = AXIS2_PLACEMENT_3D ( 'NONE', #13, #240, #283 ) ;
#150 = APPROVAL_STATUS ( 'not_yet_approved' ) ;
#151 = PERSON_AND_ORGANIZATION_ROLE ( 'creator' ) ;
#152 = EDGE_CURVE ( 'NONE', #290, #239, #231, .T. ) ;
#153 = EDGE_CURVE ( 'NONE', #242, #197, #17, .T. ) ;
#154 = APPROVAL_PERSON_ORGANIZATION ( #75, #279, #275 ) ;
#155 = DIRECTION ( 'NONE',  ( 0.000000000000000000, 0.000000000000000000, 1.000000000000000000 ) ) ;
#156 = AXIS2_PLACEMENT_3D ( 'NONE', #316, #232, #208 ) ;
#157 = DIRECTION ( 'NONE',  ( 1.000000000000000000, 0.000000000000000000, 0.000000000000000000 ) ) ;
#158 = MANIFOLD_SOLID_BREP ( 'Extrusion3', #264 ) ;
#159 = CYLINDRICAL_SURFACE ( 'NONE', #148, 36.14999999999999858 ) ;
#160 = CARTESIAN_POINT ( 'NONE',  ( 41.00000000000000000, 0.000000000000000000, -4.000000000000000000 ) ) ;
#161 = APPROVAL_PERSON_ORGANIZATION ( #317, #233, #195 ) ;
#162 = AXIS2_PLACEMENT_3D ( 'NONE', #173, #66, #273 ) ;
#163 = CARTESIAN_POINT ( 'NONE',  ( 0.000000000000000000, 0.000000000000000000, 0.000000000000000000 ) ) ;
#164 = ORIENTED_EDGE ( 'NONE', *, *, #210, .T. ) ;
#165 = APPROVAL_STATUS ( 'not_yet_approved' ) ;
#166 = PERSON ( 'UNSPECIFIED', 'UNSPECIFIED', 'UNSPECIFIED', ('UNSPECIFIED'), ('UNSPECIFIED'), ('UNSPECIFIED') ) ;
#167 = PLANE ( 'NONE',  #9 ) ;
#168 = ADVANCED_FACE ( 'NONE', ( #189 ), #83, .F. ) ;
#169 = ORIENTED_EDGE ( 'NONE', *, *, #96, .F. ) ;
#170 = PRODUCT ( 'R4-009', 'R4-009', '', ( #278 ) ) ;
#171 = DIRECTION ( 'NONE',  ( -1.000000000000000000, 0.000000000000000000, 0.000000000000000000 ) ) ;
#172 = DIRECTION ( 'NONE',  ( -0.000000000000000000, -0.000000000000000000, -1.000000000000000000 ) ) ;
#173 = CARTESIAN_POINT ( 'NONE',  ( 0.000000000000000000, 0.000000000000000000, 35.00000000000000000 ) ) ;
#174 = FACE_OUTER_BOUND ( 'NONE', #127, .T. ) ;
#175 = APPROVAL_DATE_TIME ( #276, #187 ) ;
#176 = CALENDAR_DATE ( 2022, 1, 7 ) ;
#177 = CIRCLE ( 'NONE', #54, 41.00000000000000000 ) ;
#178 = VECTOR ( 'NONE', #40, 1000.000000000000000 ) ;
#179 = PRODUCT_RELATED_PRODUCT_CATEGORY ( 'detail', '', ( #170 ) ) ;
#180 = DIRECTION ( 'NONE',  ( 1.000000000000000000, 0.000000000000000000, 0.000000000000000000 ) ) ;
#181 = CIRCLE ( 'NONE', #128, 45.00000000000000711 ) ;
#182 = LINE ( 'NONE', #261, #294 ) ;
#183 = ORIENTED_EDGE ( 'NONE', *, *, #201, .T. ) ;
#184 = FACE_BOUND ( 'NONE', #218, .T. ) ;
#185 = LOCAL_TIME ( 8, 14, 57.00000000000000000, #291 ) ;
#186 = FACE_OUTER_BOUND ( 'NONE', #188, .T. ) ;
#187 = APPROVAL ( #306, 'UNSPECIFIED' ) ;
#188 = EDGE_LOOP ( 'NONE', ( #169, #68, #47, #95 ) ) ;
#189 = FACE_OUTER_BOUND ( 'NONE', #230, .T. ) ;
#190 = DIRECTION ( 'NONE',  ( -0.000000000000000000, -0.000000000000000000, -1.000000000000000000 ) ) ;
#191 = VERTEX_POINT ( 'NONE', #10 ) ;
#192 = LOCAL_TIME ( 8, 14, 57.00000000000000000, #50 ) ;
#193 = DIRECTION ( 'NONE',  ( -1.000000000000000000, 0.000000000000000000, 0.000000000000000000 ) ) ;
#194 = VERTEX_POINT ( 'NONE', #55 ) ;
#195 = APPROVAL_ROLE ( '' ) ;
#196 = DIRECTION ( 'NONE',  ( 0.000000000000000000, 0.000000000000000000, 1.000000000000000000 ) ) ;
#197 = VERTEX_POINT ( 'NONE', #289 ) ;
#198 = DIRECTION ( 'NONE',  ( -0.000000000000000000, -0.000000000000000000, -1.000000000000000000 ) ) ;
#199 = APPLICATION_PROTOCOL_DEFINITION ( 'international standard', 'config_control_design', 1994, #58 ) ;
#200 = SECURITY_CLASSIFICATION_LEVEL ( 'unclassified' ) ;
#201 = EDGE_CURVE ( 'NONE', #197, #191, #115, .T. ) ;
#202 = AXIS2_PLACEMENT_3D ( 'NONE', #267, #302, #193 ) ;
#203 = APPLICATION_PROTOCOL_DEFINITION ( 'international standard', 'config_control_design', 1994, #67 ) ;
#204 = CALENDAR_DATE ( 2022, 1, 7 ) ;
#205 = CC_DESIGN_APPROVAL ( #279, ( #107 ) ) ;
#206 = CIRCLE ( 'NONE', #129, 41.00000000000000000 ) ;
#207 = ORIENTED_EDGE ( 'NONE', *, *, #6, .T. ) ;
#208 = DIRECTION ( 'NONE',  ( 1.000000000000000000, 0.000000000000000000, 0.000000000000000000 ) ) ;
#209 = EDGE_CURVE ( 'NONE', #247, #327, #214, .T. ) ;
#210 = EDGE_CURVE ( 'NONE', #247, #194, #263, .T. ) ;
#211 = DIRECTION ( 'NONE',  ( -1.000000000000000000, 0.000000000000000000, 0.000000000000000000 ) ) ;
#212 = SECURITY_CLASSIFICATION ( '', '', #200 ) ;
#213 = DIRECTION ( 'NONE',  ( 1.000000000000000000, 0.000000000000000000, 0.000000000000000000 ) ) ;
#214 = LINE ( 'NONE', #87, #78 ) ;
#215 = ORIENTED_EDGE ( 'NONE', *, *, #257, .F. ) ;
#216 = APPROVAL_DATE_TIME ( #132, #233 ) ;
#217 = VERTEX_POINT ( 'NONE', #292 ) ;
#218 = EDGE_LOOP ( 'NONE', ( #16, #19 ) ) ;
#219 = VECTOR ( 'NONE', #110, 1000.000000000000000 ) ;
#220 = DIRECTION ( 'NONE',  ( -1.000000000000000000, 0.000000000000000000, 0.000000000000000000 ) ) ;
#221 = DIRECTION ( 'NONE',  ( 0.000000000000000000, 0.000000000000000000, 1.000000000000000000 ) ) ;
#222 = ORIENTED_EDGE ( 'NONE', *, *, #56, .T. ) ;
#223 = CARTESIAN_POINT ( 'NONE',  ( 0.000000000000000000, 0.000000000000000000, -4.000000000000000000 ) ) ;
#224 = CYLINDRICAL_SURFACE ( 'NONE', #162, 45.00000000000000711 ) ;
#225 = FACE_OUTER_BOUND ( 'NONE', #116, .T. ) ;
#226 = CC_DESIGN_PERSON_AND_ORGANIZATION_ASSIGNMENT ( #254, #100, ( #107 ) ) ;
#227 = PLANE ( 'NONE',  #325 ) ;
#228 =( NAMED_UNIT ( * ) PLANE_ANGLE_UNIT ( ) SI_UNIT ( $, .RADIAN. ) );
#229 = EDGE_CURVE ( 'NONE', #328, #327, #181, .T. ) ;
#230 = EDGE_LOOP ( 'NONE', ( #61, #323, #111, #21 ) ) ;
#231 = CIRCLE ( 'NONE', #30, 36.14999999999999858 ) ;
#232 = DIRECTION ( 'NONE',  ( 0.000000000000000000, 0.000000000000000000, 1.000000000000000000 ) ) ;
#233 = APPROVAL ( #165, 'UNSPECIFIED' ) ;
#234 = PLANE ( 'NONE',  #45 ) ;
#235 = SHAPE_DEFINITION_REPRESENTATION ( #329, #241 ) ;
#236 = CARTESIAN_POINT ( 'NONE',  ( -41.00000000000000000, 5.021051876504148963E-15, -4.000000000000000000 ) ) ;
#237 = AXIS2_PLACEMENT_3D ( 'NONE', #223, #301, #46 ) ;
#238 = DIRECTION ( 'NONE',  ( 1.000000000000000000, 0.000000000000000000, 0.000000000000000000 ) ) ;
#239 = VERTEX_POINT ( 'NONE', #64 ) ;
#240 = DIRECTION ( 'NONE',  ( 0.000000000000000000, 0.000000000000000000, 1.000000000000000000 ) ) ;
#241 = ADVANCED_BREP_SHAPE_REPRESENTATION ( 'R4-009', ( #158, #14 ), #5 ) ;
#242 = VERTEX_POINT ( 'NONE', #160 ) ;
#243 = DIRECTION ( 'NONE',  ( -0.000000000000000000, -0.000000000000000000, -1.000000000000000000 ) ) ;
#244 = EDGE_LOOP ( 'NONE', ( #321, #113 ) ) ;
#245 = LOCAL_TIME ( 8, 14, 57.00000000000000000, #76 ) ;
#246 = FACE_OUTER_BOUND ( 'NONE', #41, .T. ) ;
#247 = VERTEX_POINT ( 'NONE', #265 ) ;
#248 = ADVANCED_FACE ( 'NONE', ( #105, #184 ), #234, .F. ) ;
#249 = CARTESIAN_POINT ( 'NONE',  ( 0.000000000000000000, 0.000000000000000000, 35.00000000000000000 ) ) ;
#250 = APPROVAL_DATE_TIME ( #123, #279 ) ;
#251 = CC_DESIGN_SECURITY_CLASSIFICATION ( #212, ( #107 ) ) ;
#252 = VECTOR ( 'NONE', #69, 1000.000000000000000 ) ;
#253 =( LENGTH_UNIT ( ) NAMED_UNIT ( * ) SI_UNIT ( .MILLI., .METRE. ) );
#254 = PERSON_AND_ORGANIZATION ( #166, #303 ) ;
#255 = CARTESIAN_POINT ( 'NONE',  ( 0.000000000000000000, 0.000000000000000000, 0.000000000000000000 ) ) ;
#256 = DIRECTION ( 'NONE',  ( -0.000000000000000000, -0.000000000000000000, 1.000000000000000000 ) ) ;
#257 = EDGE_CURVE ( 'NONE', #242, #296, #177, .T. ) ;
#258 = FACE_OUTER_BOUND ( 'NONE', #43, .T. ) ;
#259 = DIRECTION ( 'NONE',  ( -0.000000000000000000, -0.000000000000000000, 1.000000000000000000 ) ) ;
#260 = ORIENTED_EDGE ( 'NONE', *, *, #6, .F. ) ;
#261 = CARTESIAN_POINT ( 'NONE',  ( -36.14999999999999858, 4.427098178917682074E-15, -4.000999999999997669 ) ) ;
#262 = ORIENTED_EDGE ( 'NONE', *, *, #209, .T. ) ;
#263 = CIRCLE ( 'NONE', #156, 45.00000000000000711 ) ;
#264 = CLOSED_SHELL ( 'NONE', ( #270, #117, #51, #248, #310, #82, #309, #57, #168 ) ) ;
#265 = CARTESIAN_POINT ( 'NONE',  ( 45.00000000000000711, 5.510910596163090344E-15, 35.00000000000000000 ) ) ;
#266 = ORIENTED_EDGE ( 'NONE', *, *, #140, .F. ) ;
#267 = CARTESIAN_POINT ( 'NONE',  ( 0.000000000000000000, 0.000000000000000000, -4.000000000000000000 ) ) ;
#268 = ORIENTED_EDGE ( 'NONE', *, *, #94, .F. ) ;
#269 = EDGE_CURVE ( 'NONE', #217, #136, #121, .T. ) ;
#270 = ADVANCED_FACE ( 'NONE', ( #186 ), #159, .F. ) ;
#271 = AXIS2_PLACEMENT_3D ( 'NONE', #70, #172, #220 ) ;
#272 = CARTESIAN_POINT ( 'NONE',  ( -45.00000000000000711, 0.000000000000000000, 0.000000000000000000 ) ) ;
#273 = DIRECTION ( 'NONE',  ( -1.000000000000000000, 0.000000000000000000, 0.000000000000000000 ) ) ;
#274 = ORIENTED_EDGE ( 'NONE', *, *, #152, .F. ) ;
#275 = APPROVAL_ROLE ( '' ) ;
#276 = DATE_AND_TIME ( #176, #245 ) ;
#277 = PERSON_AND_ORGANIZATION ( #166, #303 ) ;
#278 = MECHANICAL_CONTEXT ( 'NONE', #67, 'mechanical' ) ;
#279 = APPROVAL ( #150, 'UNSPECIFIED' ) ;
#280 = LOCAL_TIME ( 8, 14, 57.00000000000000000, #26 ) ;
#281 = CARTESIAN_POINT ( 'NONE',  ( 0.000000000000000000, 0.000000000000000000, -4.000999999999997669 ) ) ;
#282 = ORIENTED_EDGE ( 'NONE', *, *, #210, .F. ) ;
#283 = DIRECTION ( 'NONE',  ( 1.000000000000000000, 0.000000000000000000, 0.000000000000000000 ) ) ;
#284 = APPROVAL_PERSON_ORGANIZATION ( #7, #187, #103 ) ;
#285 = UNCERTAINTY_MEASURE_WITH_UNIT (LENGTH_MEASURE( 1.000000000000000082E-05 ), #253, 'distance_accuracy_value', 'NONE');
#286 = CIRCLE ( 'NONE', #202, 41.00000000000000000 ) ;
#287 = CARTESIAN_POINT ( 'NONE',  ( 0.000000000000000000, 0.000000000000000000, -4.000000000000000000 ) ) ;
#288 = ORIENTED_EDGE ( 'NONE', *, *, #153, .F. ) ;
#289 = CARTESIAN_POINT ( 'NONE',  ( 41.00000000000000000, 0.000000000000000000, 0.000000000000000000 ) ) ;
#290 = VERTEX_POINT ( 'NONE', #133 ) ;
#291 = COORDINATED_UNIVERSAL_TIME_OFFSET ( 1, 0, .AHEAD. ) ;
#292 = CARTESIAN_POINT ( 'NONE',  ( 36.14999999999999858, 0.000000000000000000, -4.000000000000000000 ) ) ;
#293 = ORIENTED_EDGE ( 'NONE', *, *, #300, .T. ) ;
#294 = VECTOR ( 'NONE', #32, 1000.000000000000000 ) ;
#295 = ORIENTED_EDGE ( 'NONE', *, *, #153, .T. ) ;
#296 = VERTEX_POINT ( 'NONE', #236 ) ;
#297 = CYLINDRICAL_SURFACE ( 'NONE', #271, 45.00000000000000711 ) ;
#298 = CC_DESIGN_DATE_AND_TIME_ASSIGNMENT ( #62, #91, ( #212 ) ) ;
#299 = CARTESIAN_POINT ( 'NONE',  ( -41.00000000000000000, 5.021051876504148963E-15, -4.000000000000000000 ) ) ;
#300 = EDGE_CURVE ( 'NONE', #327, #328, #8, .T. ) ;
#301 = DIRECTION ( 'NONE',  ( -0.000000000000000000, -0.000000000000000000, 1.000000000000000000 ) ) ;
#302 = DIRECTION ( 'NONE',  ( 0.000000000000000000, 0.000000000000000000, -1.000000000000000000 ) ) ;
#303 = ORGANIZATION ( 'UNSPECIFIED', 'UNSPECIFIED', '' ) ;
#304 = LINE ( 'NONE', #119, #102 ) ;
#305 = DATE_AND_TIME ( #204, #192 ) ;
#306 = APPROVAL_STATUS ( 'not_yet_approved' ) ;
#307 = PERSON_AND_ORGANIZATION ( #166, #303 ) ;
#308 = AXIS2_PLACEMENT_3D ( 'NONE', #48, #44, #171 ) ;
#309 = ADVANCED_FACE ( 'NONE', ( #246 ), #118, .T. ) ;
#310 = ADVANCED_FACE ( 'NONE', ( #225 ), #297, .T. ) ;
#311 = DATE_TIME_ROLE ( 'creation_date' ) ;
#312 = AXIS2_PLACEMENT_3D ( 'NONE', #318, #196, #24 ) ;
#313 = AXIS2_PLACEMENT_3D ( 'NONE', #85, #320, #134 ) ;
#314 = CARTESIAN_POINT ( 'NONE',  ( 0.000000000000000000, 0.000000000000000000, -4.000000000000000000 ) ) ;
#315 = CARTESIAN_POINT ( 'NONE',  ( 36.14999999999999858, 0.000000000000000000, -4.000999999999997669 ) ) ;
#316 = CARTESIAN_POINT ( 'NONE',  ( 0.000000000000000000, 0.000000000000000000, 35.00000000000000000 ) ) ;
#317 = PERSON_AND_ORGANIZATION ( #166, #303 ) ;
#318 = CARTESIAN_POINT ( 'NONE',  ( 0.000000000000000000, 0.000000000000000000, 0.000000000000000000 ) ) ;
#319 = ORIENTED_EDGE ( 'NONE', *, *, #269, .T. ) ;
#320 = DIRECTION ( 'NONE',  ( -0.000000000000000000, -0.000000000000000000, 1.000000000000000000 ) ) ;
#321 = ORIENTED_EDGE ( 'NONE', *, *, #229, .F. ) ;
#322 = DIRECTION ( 'NONE',  ( 1.000000000000000000, 0.000000000000000000, 0.000000000000000000 ) ) ;
#323 = ORIENTED_EDGE ( 'NONE', *, *, #269, .F. ) ;
#324 = AXIS2_PLACEMENT_3D ( 'NONE', #314, #84, #79 ) ;
#325 = AXIS2_PLACEMENT_3D ( 'NONE', #74, #221, #89 ) ;
#326 = ORIENTED_EDGE ( 'NONE', *, *, #229, .T. ) ;
#327 = VERTEX_POINT ( 'NONE', #144 ) ;
#328 = VERTEX_POINT ( 'NONE', #272 ) ;
#329 = PRODUCT_DEFINITION_SHAPE ( 'NONE', 'NONE',  #33 ) ;
ENDSEC;
END-ISO-10303-21;
