ISO-10303-21;
HEADER;
FILE_DESCRIPTION (( 'STEP AP203' ),
    '1' );
FILE_NAME ('R4-010.STEP',
    '2022-07-01T06:15:30',
    ( '' ),
    ( '' ),
    'SwSTEP 2.0',
    'SolidWorks 2022',
    '' );
FILE_SCHEMA (( 'CONFIG_CONTROL_DESIGN' ));
ENDSEC;

DATA;
#1 = ORIENTED_EDGE ( 'NONE', *, *, #224, .F. ) ;
#2 = CIRCLE ( 'NONE', #16, 52.50000000000000000 ) ;
#3 = PERSON_AND_ORGANIZATION_ROLE ( 'creator' ) ;
#4 = EDGE_CURVE ( 'NONE', #218, #32, #166, .T. ) ;
#5 = SECURITY_CLASSIFICATION ( '', '', #213 ) ;
#6 = EDGE_LOOP ( 'NONE', ( #105, #87, #282, #83 ) ) ;
#7 = EDGE_CURVE ( 'NONE', #293, #211, #18, .T. ) ;
#8 = APPROVAL_ROLE ( '' ) ;
#9 = ORIENTED_EDGE ( 'NONE', *, *, #126, .T. ) ;
#10 = ADVANCED_FACE ( 'NONE', ( #223 ), #120, .T. ) ;
#11 = CALENDAR_DATE ( 2022, 1, 7 ) ;
#12 = CLOSED_SHELL ( 'NONE', ( #221, #303, #10, #165, #41, #309, #313, #186, #254 ) ) ;
#13 = EDGE_LOOP ( 'NONE', ( #159, #215 ) ) ;
#14 = DIRECTION ( 'NONE',  ( -1.000000000000000000, 0.000000000000000000, 0.000000000000000000 ) ) ;
#15 = DIRECTION ( 'NONE',  ( -0.000000000000000000, -0.000000000000000000, -1.000000000000000000 ) ) ;
#16 = AXIS2_PLACEMENT_3D ( 'NONE', #317, #194, #43 ) ;
#17 = DIRECTION ( 'NONE',  ( 0.000000000000000000, 0.000000000000000000, -1.000000000000000000 ) ) ;
#18 = LINE ( 'NONE', #296, #141 ) ;
#19 = EDGE_CURVE ( 'NONE', #109, #264, #171, .T. ) ;
#20 = CARTESIAN_POINT ( 'NONE',  ( 0.000000000000000000, 0.000000000000000000, 40.00000000000000000 ) ) ;
#21 = PRODUCT ( 'R4-010', 'R4-010', '', ( #301 ) ) ;
#22 = CARTESIAN_POINT ( 'NONE',  ( 0.000000000000000000, 0.000000000000000000, -4.000000000000000000 ) ) ;
#23 = LOCAL_TIME ( 8, 15, 30.00000000000000000, #307 ) ;
#24 = FACE_OUTER_BOUND ( 'NONE', #308, .T. ) ;
#25 = CYLINDRICAL_SURFACE ( 'NONE', #118, 42.50000000000000711 ) ;
#26 = PERSON_AND_ORGANIZATION_ROLE ( 'design_owner' ) ;
#27 = FACE_OUTER_BOUND ( 'NONE', #241, .T. ) ;
#28 = PERSON_AND_ORGANIZATION ( #132, #305 ) ;
#29 = PERSON_AND_ORGANIZATION ( #132, #305 ) ;
#30 = VERTEX_POINT ( 'NONE', #203 ) ;
#31 = COORDINATED_UNIVERSAL_TIME_OFFSET ( 1, 0, .AHEAD. ) ;
#32 = VERTEX_POINT ( 'NONE', #145 ) ;
#33 = AXIS2_PLACEMENT_3D ( 'NONE', #202, #65, #270 ) ;
#34 = PERSON_AND_ORGANIZATION ( #132, #305 ) ;
#35 = VERTEX_POINT ( 'NONE', #93 ) ;
#36 = UNCERTAINTY_MEASURE_WITH_UNIT (LENGTH_MEASURE( 1.000000000000000082E-05 ), #216, 'distance_accuracy_value', 'NONE');
#37 = DATE_AND_TIME ( #11, #116 ) ;
#38 = ORIENTED_EDGE ( 'NONE', *, *, #278, .T. ) ;
#39 = CIRCLE ( 'NONE', #228, 42.50000000000000711 ) ;
#40 = CARTESIAN_POINT ( 'NONE',  ( -52.50000000000000000, 0.000000000000000000, 40.00000000000000000 ) ) ;
#41 = ADVANCED_FACE ( 'NONE', ( #294 ), #245, .T. ) ;
#42 = DIRECTION ( 'NONE',  ( -1.000000000000000000, 0.000000000000000000, 0.000000000000000000 ) ) ;
#43 = DIRECTION ( 'NONE',  ( 1.000000000000000000, 0.000000000000000000, 0.000000000000000000 ) ) ;
#44 = APPROVAL ( #180, 'UNSPECIFIED' ) ;
#45 = ORIENTED_EDGE ( 'NONE', *, *, #4, .T. ) ;
#46 = DIRECTION ( 'NONE',  ( -0.000000000000000000, -0.000000000000000000, -1.000000000000000000 ) ) ;
#47 = PLANE ( 'NONE',  #62 ) ;
#48 = CC_DESIGN_SECURITY_CLASSIFICATION ( #5, ( #212 ) ) ;
#49 = DIRECTION ( 'NONE',  ( 0.000000000000000000, 0.000000000000000000, 1.000000000000000000 ) ) ;
#50 = CIRCLE ( 'NONE', #33, 52.50000000000000000 ) ;
#51 = CARTESIAN_POINT ( 'NONE',  ( 47.50000000000000711, 0.000000000000000000, -4.000000000000000000 ) ) ;
#52 = FACE_BOUND ( 'NONE', #13, .T. ) ;
#53 = APPLICATION_PROTOCOL_DEFINITION ( 'international standard', 'config_control_design', 1994, #182 ) ;
#54 = APPROVAL ( #137, 'UNSPECIFIED' ) ;
#55 = EDGE_CURVE ( 'NONE', #32, #211, #229, .T. ) ;
#56 =( GEOMETRIC_REPRESENTATION_CONTEXT ( 3 ) GLOBAL_UNCERTAINTY_ASSIGNED_CONTEXT ( ( #36 ) ) GLOBAL_UNIT_ASSIGNED_CONTEXT ( ( #216, #104, #232 ) ) REPRESENTATION_CONTEXT ( 'NONE', 'WORKASPACE' ) );
#57 = EDGE_LOOP ( 'NONE', ( #167, #312 ) ) ;
#58 = DATE_TIME_ROLE ( 'creation_date' ) ;
#59 = ORIENTED_EDGE ( 'NONE', *, *, #113, .F. ) ;
#60 = PERSON_AND_ORGANIZATION ( #132, #305 ) ;
#61 = ORIENTED_EDGE ( 'NONE', *, *, #7, .F. ) ;
#62 = AXIS2_PLACEMENT_3D ( 'NONE', #115, #121, #169 ) ;
#63 = DATE_AND_TIME ( #258, #23 ) ;
#64 = ORIENTED_EDGE ( 'NONE', *, *, #161, .F. ) ;
#65 = DIRECTION ( 'NONE',  ( 0.000000000000000000, 0.000000000000000000, 1.000000000000000000 ) ) ;
#66 = EDGE_CURVE ( 'NONE', #30, #217, #82, .T. ) ;
#67 = CARTESIAN_POINT ( 'NONE',  ( 52.50000000000000000, 6.429395695523603956E-15, 40.00000000000000000 ) ) ;
#68 = PRODUCT_DEFINITION ( 'UNKNOWN', '', #212, #111 ) ;
#69 = DIRECTION ( 'NONE',  ( -0.000000000000000000, -0.000000000000000000, 1.000000000000000000 ) ) ;
#70 = DIRECTION ( 'NONE',  ( 0.000000000000000000, 0.000000000000000000, 1.000000000000000000 ) ) ;
#71 = LINE ( 'NONE', #40, #76 ) ;
#72 = EDGE_CURVE ( 'NONE', #139, #191, #124, .T. ) ;
#73 = DIRECTION ( 'NONE',  ( 1.000000000000000000, 0.000000000000000000, 0.000000000000000000 ) ) ;
#74 = CC_DESIGN_APPROVAL ( #54, ( #5 ) ) ;
#75 = DIRECTION ( 'NONE',  ( -0.000000000000000000, -0.000000000000000000, 1.000000000000000000 ) ) ;
#76 = VECTOR ( 'NONE', #273, 1000.000000000000000 ) ;
#77 = DIRECTION ( 'NONE',  ( 1.000000000000000000, 0.000000000000000000, 0.000000000000000000 ) ) ;
#78 = LINE ( 'NONE', #151, #152 ) ;
#79 = CC_DESIGN_PERSON_AND_ORGANIZATION_ASSIGNMENT ( #210, #3, ( #212 ) ) ;
#80 = CARTESIAN_POINT ( 'NONE',  ( 0.000000000000000000, 0.000000000000000000, 0.000000000000000000 ) ) ;
#81 = ORIENTED_EDGE ( 'NONE', *, *, #66, .T. ) ;
#82 = CIRCLE ( 'NONE', #268, 42.50000000000000711 ) ;
#83 = ORIENTED_EDGE ( 'NONE', *, *, #321, .T. ) ;
#84 = PERSON_AND_ORGANIZATION_ROLE ( 'classification_officer' ) ;
#85 = ORIENTED_EDGE ( 'NONE', *, *, #98, .F. ) ;
#86 = CALENDAR_DATE ( 2022, 1, 7 ) ;
#87 = ORIENTED_EDGE ( 'NONE', *, *, #102, .F. ) ;
#88 = ORIENTED_EDGE ( 'NONE', *, *, #311, .F. ) ;
#89 = CARTESIAN_POINT ( 'NONE',  ( 0.000000000000000000, 0.000000000000000000, -4.000000000000000000 ) ) ;
#90 = AXIS2_PLACEMENT_3D ( 'NONE', #153, #127, #231 ) ;
#91 = CARTESIAN_POINT ( 'NONE',  ( 0.000000000000000000, 0.000000000000000000, 0.000000000000000000 ) ) ;
#92 = EDGE_LOOP ( 'NONE', ( #133, #260 ) ) ;
#93 = CARTESIAN_POINT ( 'NONE',  ( -52.50000000000000000, 0.000000000000000000, 40.00000000000000000 ) ) ;
#94 = DIRECTION ( 'NONE',  ( 1.000000000000000000, 0.000000000000000000, 0.000000000000000000 ) ) ;
#95 = PLANE ( 'NONE',  #238 ) ;
#96 = DIRECTION ( 'NONE',  ( 1.000000000000000000, 0.000000000000000000, 0.000000000000000000 ) ) ;
#97 = CARTESIAN_POINT ( 'NONE',  ( -47.50000000000000711, 5.817072295949929004E-15, 0.000000000000000000 ) ) ;
#98 = EDGE_CURVE ( 'NONE', #284, #264, #2, .T. ) ;
#99 = CYLINDRICAL_SURFACE ( 'NONE', #316, 42.50000000000000711 ) ;
#100 = VECTOR ( 'NONE', #292, 1000.000000000000000 ) ;
#101 = APPLICATION_PROTOCOL_DEFINITION ( 'international standard', 'config_control_design', 1994, #257 ) ;
#102 = EDGE_CURVE ( 'NONE', #191, #139, #177, .T. ) ;
#103 = CYLINDRICAL_SURFACE ( 'NONE', #323, 47.50000000000000711 ) ;
#104 =( NAMED_UNIT ( * ) PLANE_ANGLE_UNIT ( ) SI_UNIT ( $, .RADIAN. ) );
#105 = ORIENTED_EDGE ( 'NONE', *, *, #278, .F. ) ;
#106 = PERSON_AND_ORGANIZATION_ROLE ( 'design_supplier' ) ;
#107 = LOCAL_TIME ( 8, 15, 30.00000000000000000, #130 ) ;
#108 = AXIS2_PLACEMENT_3D ( 'NONE', #91, #149, #314 ) ;
#109 = VERTEX_POINT ( 'NONE', #67 ) ;
#110 = ORIENTED_EDGE ( 'NONE', *, *, #128, .F. ) ;
#111 = DESIGN_CONTEXT ( 'detailed design', #182, 'design' ) ;
#112 = EDGE_LOOP ( 'NONE', ( #280, #242 ) ) ;
#113 = EDGE_CURVE ( 'NONE', #35, #284, #71, .T. ) ;
#114 = APPROVAL_DATE_TIME ( #37, #54 ) ;
#115 = CARTESIAN_POINT ( 'NONE',  ( 0.000000000000000000, 0.000000000000000000, 0.000000000000000000 ) ) ;
#116 = LOCAL_TIME ( 8, 15, 30.00000000000000000, #329 ) ;
#117 = DIRECTION ( 'NONE',  ( -1.000000000000000000, 0.000000000000000000, 0.000000000000000000 ) ) ;
#118 = AXIS2_PLACEMENT_3D ( 'NONE', #276, #328, #96 ) ;
#119 = FACE_OUTER_BOUND ( 'NONE', #310, .T. ) ;
#120 = CYLINDRICAL_SURFACE ( 'NONE', #297, 52.50000000000000000 ) ;
#121 = DIRECTION ( 'NONE',  ( 0.000000000000000000, 0.000000000000000000, 1.000000000000000000 ) ) ;
#122 = FACE_OUTER_BOUND ( 'NONE', #193, .T. ) ;
#123 = AXIS2_PLACEMENT_3D ( 'NONE', #80, #259, #181 ) ;
#124 = CIRCLE ( 'NONE', #214, 42.50000000000000711 ) ;
#125 = FACE_OUTER_BOUND ( 'NONE', #239, .T. ) ;
#126 = EDGE_CURVE ( 'NONE', #211, #32, #286, .T. ) ;
#127 = DIRECTION ( 'NONE',  ( 0.000000000000000000, 0.000000000000000000, -1.000000000000000000 ) ) ;
#128 = EDGE_CURVE ( 'NONE', #109, #35, #327, .T. ) ;
#129 = CARTESIAN_POINT ( 'NONE',  ( 0.000000000000000000, 0.000000000000000000, -4.000000000000000000 ) ) ;
#130 = COORDINATED_UNIVERSAL_TIME_OFFSET ( 1, 0, .AHEAD. ) ;
#131 = APPROVAL_STATUS ( 'not_yet_approved' ) ;
#132 = PERSON ( 'UNSPECIFIED', 'UNSPECIFIED', 'UNSPECIFIED', ('UNSPECIFIED'), ('UNSPECIFIED'), ('UNSPECIFIED') ) ;
#133 = ORIENTED_EDGE ( 'NONE', *, *, #102, .T. ) ;
#134 = APPROVAL_DATE_TIME ( #164, #140 ) ;
#135 = CIRCLE ( 'NONE', #90, 47.50000000000000711 ) ;
#136 = ORIENTED_EDGE ( 'NONE', *, *, #19, .T. ) ;
#137 = APPROVAL_STATUS ( 'not_yet_approved' ) ;
#138 = ORIENTED_EDGE ( 'NONE', *, *, #128, .T. ) ;
#139 = VERTEX_POINT ( 'NONE', #272 ) ;
#140 = APPROVAL ( #131, 'UNSPECIFIED' ) ;
#141 = VECTOR ( 'NONE', #69, 1000.000000000000000 ) ;
#142 = AXIS2_PLACEMENT_3D ( 'NONE', #227, #155, #255 ) ;
#143 = AXIS2_PLACEMENT_3D ( 'NONE', #20, #15, #117 ) ;
#144 = EDGE_CURVE ( 'NONE', #191, #217, #170, .T. ) ;
#145 = CARTESIAN_POINT ( 'NONE',  ( 47.50000000000000711, 0.000000000000000000, 0.000000000000000000 ) ) ;
#146 = CARTESIAN_POINT ( 'NONE',  ( 0.000000000000000000, 0.000000000000000000, 40.00000000000000000 ) ) ;
#147 = AXIS2_PLACEMENT_3D ( 'NONE', #295, #225, #42 ) ;
#148 = CARTESIAN_POINT ( 'NONE',  ( 0.000000000000000000, 0.000000000000000000, 0.000000000000000000 ) ) ;
#149 = DIRECTION ( 'NONE',  ( -0.000000000000000000, -0.000000000000000000, -1.000000000000000000 ) ) ;
#150 = ADVANCED_BREP_SHAPE_REPRESENTATION ( 'R4-010', ( #192, #123 ), #56 ) ;
#151 = CARTESIAN_POINT ( 'NONE',  ( -42.50000000000000711, 5.204748896376252474E-15, -4.000999999999997669 ) ) ;
#152 = VECTOR ( 'NONE', #75, 1000.000000000000000 ) ;
#153 = CARTESIAN_POINT ( 'NONE',  ( 0.000000000000000000, 0.000000000000000000, -4.000000000000000000 ) ) ;
#154 = DIRECTION ( 'NONE',  ( -1.000000000000000000, 0.000000000000000000, -0.000000000000000000 ) ) ;
#155 = DIRECTION ( 'NONE',  ( 0.000000000000000000, 0.000000000000000000, 1.000000000000000000 ) ) ;
#156 = APPROVAL_ROLE ( '' ) ;
#157 = PERSON_AND_ORGANIZATION ( #132, #305 ) ;
#158 = ORIENTED_EDGE ( 'NONE', *, *, #72, .F. ) ;
#159 = ORIENTED_EDGE ( 'NONE', *, *, #321, .F. ) ;
#160 = DATE_AND_TIME ( #240, #196 ) ;
#161 = EDGE_CURVE ( 'NONE', #264, #284, #50, .T. ) ;
#162 = APPROVAL_PERSON_ORGANIZATION ( #34, #54, #8 ) ;
#163 = ORIENTED_EDGE ( 'NONE', *, *, #161, .T. ) ;
#164 = DATE_AND_TIME ( #261, #107 ) ;
#165 = ADVANCED_FACE ( 'NONE', ( #119, #247 ), #47, .F. ) ;
#166 = LINE ( 'NONE', #249, #200 ) ;
#167 = ORIENTED_EDGE ( 'NONE', *, *, #224, .T. ) ;
#168 = CC_DESIGN_APPROVAL ( #44, ( #68 ) ) ;
#169 = DIRECTION ( 'NONE',  ( 1.000000000000000000, 0.000000000000000000, -0.000000000000000000 ) ) ;
#170 = LINE ( 'NONE', #197, #100 ) ;
#171 = LINE ( 'NONE', #322, #244 ) ;
#172 = FACE_BOUND ( 'NONE', #92, .T. ) ;
#173 = PRODUCT_DEFINITION_SHAPE ( 'NONE', 'NONE',  #68 ) ;
#174 = CC_DESIGN_DATE_AND_TIME_ASSIGNMENT ( #160, #263, ( #5 ) ) ;
#175 = DIRECTION ( 'NONE',  ( 1.000000000000000000, 0.000000000000000000, 0.000000000000000000 ) ) ;
#176 = CARTESIAN_POINT ( 'NONE',  ( 0.000000000000000000, 0.000000000000000000, 40.00000000000000000 ) ) ;
#177 = CIRCLE ( 'NONE', #147, 42.50000000000000711 ) ;
#178 = DIRECTION ( 'NONE',  ( 1.000000000000000000, 0.000000000000000000, -0.000000000000000000 ) ) ;
#179 = DIRECTION ( 'NONE',  ( 1.000000000000000000, 0.000000000000000000, 0.000000000000000000 ) ) ;
#180 = APPROVAL_STATUS ( 'not_yet_approved' ) ;
#181 = DIRECTION ( 'NONE',  ( 1.000000000000000000, 0.000000000000000000, 0.000000000000000000 ) ) ;
#182 = APPLICATION_CONTEXT ( 'configuration controlled 3d designs of mechanical parts and assemblies' ) ;
#183 = ORIENTED_EDGE ( 'NONE', *, *, #4, .F. ) ;
#184 = CIRCLE ( 'NONE', #142, 52.50000000000000000 ) ;
#185 = ORIENTED_EDGE ( 'NONE', *, *, #19, .F. ) ;
#186 = ADVANCED_FACE ( 'NONE', ( #172, #246 ), #95, .T. ) ;
#187 = COORDINATED_UNIVERSAL_TIME_OFFSET ( 1, 0, .AHEAD. ) ;
#188 = ORIENTED_EDGE ( 'NONE', *, *, #98, .T. ) ;
#189 = PERSON_AND_ORGANIZATION_ROLE ( 'creator' ) ;
#190 = CC_DESIGN_PERSON_AND_ORGANIZATION_ASSIGNMENT ( #157, #26, ( #21 ) ) ;
#191 = VERTEX_POINT ( 'NONE', #302 ) ;
#192 = MANIFOLD_SOLID_BREP ( 'Extrusion3', #12 ) ;
#193 = EDGE_LOOP ( 'NONE', ( #237, #138 ) ) ;
#194 = DIRECTION ( 'NONE',  ( 0.000000000000000000, 0.000000000000000000, 1.000000000000000000 ) ) ;
#195 = AXIS2_PLACEMENT_3D ( 'NONE', #148, #248, #319 ) ;
#196 = LOCAL_TIME ( 8, 15, 30.00000000000000000, #187 ) ;
#197 = CARTESIAN_POINT ( 'NONE',  ( 42.50000000000000711, 0.000000000000000000, -4.000999999999997669 ) ) ;
#198 = DIRECTION ( 'NONE',  ( -0.000000000000000000, -0.000000000000000000, 1.000000000000000000 ) ) ;
#199 = ORIENTED_EDGE ( 'NONE', *, *, #7, .T. ) ;
#200 = VECTOR ( 'NONE', #290, 1000.000000000000000 ) ;
#201 = CC_DESIGN_DATE_AND_TIME_ASSIGNMENT ( #63, #58, ( #68 ) ) ;
#202 = CARTESIAN_POINT ( 'NONE',  ( 0.000000000000000000, 0.000000000000000000, 0.000000000000000000 ) ) ;
#203 = CARTESIAN_POINT ( 'NONE',  ( -42.50000000000000711, 5.204748896376252474E-15, 40.00000000000000000 ) ) ;
#204 = AXIS2_PLACEMENT_3D ( 'NONE', #129, #298, #73 ) ;
#205 = CYLINDRICAL_SURFACE ( 'NONE', #204, 47.50000000000000711 ) ;
#206 = DIRECTION ( 'NONE',  ( 0.000000000000000000, 0.000000000000000000, 1.000000000000000000 ) ) ;
#207 = AXIS2_PLACEMENT_3D ( 'NONE', #146, #70, #94 ) ;
#208 = DIRECTION ( 'NONE',  ( -0.000000000000000000, -0.000000000000000000, 1.000000000000000000 ) ) ;
#209 = CARTESIAN_POINT ( 'NONE',  ( -52.50000000000000000, 0.000000000000000000, 0.000000000000000000 ) ) ;
#210 = PERSON_AND_ORGANIZATION ( #132, #305 ) ;
#211 = VERTEX_POINT ( 'NONE', #97 ) ;
#212 = PRODUCT_DEFINITION_FORMATION_WITH_SPECIFIED_SOURCE ( 'ANY', '', #21, .NOT_KNOWN. ) ;
#213 = SECURITY_CLASSIFICATION_LEVEL ( 'unclassified' ) ;
#214 = AXIS2_PLACEMENT_3D ( 'NONE', #89, #198, #220 ) ;
#215 = ORIENTED_EDGE ( 'NONE', *, *, #66, .F. ) ;
#216 =( LENGTH_UNIT ( ) NAMED_UNIT ( * ) SI_UNIT ( .MILLI., .METRE. ) );
#217 = VERTEX_POINT ( 'NONE', #253 ) ;
#218 = VERTEX_POINT ( 'NONE', #51 ) ;
#219 = DIRECTION ( 'NONE',  ( -0.000000000000000000, -0.000000000000000000, -1.000000000000000000 ) ) ;
#220 = DIRECTION ( 'NONE',  ( -1.000000000000000000, 0.000000000000000000, 0.000000000000000000 ) ) ;
#221 = ADVANCED_FACE ( 'NONE', ( #125 ), #25, .F. ) ;
#222 = AXIS2_PLACEMENT_3D ( 'NONE', #22, #300, #274 ) ;
#223 = FACE_OUTER_BOUND ( 'NONE', #306, .T. ) ;
#224 = EDGE_CURVE ( 'NONE', #218, #293, #135, .T. ) ;
#225 = DIRECTION ( 'NONE',  ( -0.000000000000000000, -0.000000000000000000, 1.000000000000000000 ) ) ;
#226 = CARTESIAN_POINT ( 'NONE',  ( 0.000000000000000000, 0.000000000000000000, -4.000000000000000000 ) ) ;
#227 = CARTESIAN_POINT ( 'NONE',  ( 0.000000000000000000, 0.000000000000000000, 40.00000000000000000 ) ) ;
#228 = AXIS2_PLACEMENT_3D ( 'NONE', #176, #49, #251 ) ;
#229 = CIRCLE ( 'NONE', #108, 47.50000000000000711 ) ;
#230 = CARTESIAN_POINT ( 'NONE',  ( 52.50000000000000000, 6.429395695523603956E-15, 0.000000000000000000 ) ) ;
#231 = DIRECTION ( 'NONE',  ( -1.000000000000000000, 0.000000000000000000, 0.000000000000000000 ) ) ;
#232 =( NAMED_UNIT ( * ) SI_UNIT ( $, .STERADIAN. ) SOLID_ANGLE_UNIT ( ) );
#233 = PLANE ( 'NONE',  #243 ) ;
#234 = PERSON_AND_ORGANIZATION ( #132, #305 ) ;
#235 = CC_DESIGN_PERSON_AND_ORGANIZATION_ASSIGNMENT ( #234, #84, ( #5 ) ) ;
#236 = APPROVAL_ROLE ( '' ) ;
#237 = ORIENTED_EDGE ( 'NONE', *, *, #311, .T. ) ;
#238 = AXIS2_PLACEMENT_3D ( 'NONE', #226, #17, #154 ) ;
#239 = EDGE_LOOP ( 'NONE', ( #158, #38, #81, #262 ) ) ;
#240 = CALENDAR_DATE ( 2022, 1, 7 ) ;
#241 = EDGE_LOOP ( 'NONE', ( #61, #1, #45, #287 ) ) ;
#242 = ORIENTED_EDGE ( 'NONE', *, *, #126, .F. ) ;
#243 = AXIS2_PLACEMENT_3D ( 'NONE', #277, #206, #178 ) ;
#244 = VECTOR ( 'NONE', #219, 1000.000000000000000 ) ;
#245 = CYLINDRICAL_SURFACE ( 'NONE', #143, 52.50000000000000000 ) ;
#246 = FACE_OUTER_BOUND ( 'NONE', #57, .T. ) ;
#247 = FACE_BOUND ( 'NONE', #112, .T. ) ;
#248 = DIRECTION ( 'NONE',  ( -0.000000000000000000, -0.000000000000000000, -1.000000000000000000 ) ) ;
#249 = CARTESIAN_POINT ( 'NONE',  ( 47.50000000000000711, 0.000000000000000000, -4.000000000000000000 ) ) ;
#250 = DIRECTION ( 'NONE',  ( -0.000000000000000000, -0.000000000000000000, 1.000000000000000000 ) ) ;
#251 = DIRECTION ( 'NONE',  ( 1.000000000000000000, 0.000000000000000000, 0.000000000000000000 ) ) ;
#252 = APPROVAL_PERSON_ORGANIZATION ( #28, #140, #236 ) ;
#253 = CARTESIAN_POINT ( 'NONE',  ( 42.50000000000000711, 0.000000000000000000, 40.00000000000000000 ) ) ;
#254 = ADVANCED_FACE ( 'NONE', ( #326 ), #99, .F. ) ;
#255 = DIRECTION ( 'NONE',  ( 1.000000000000000000, 0.000000000000000000, 0.000000000000000000 ) ) ;
#256 = CC_DESIGN_PERSON_AND_ORGANIZATION_ASSIGNMENT ( #29, #189, ( #68 ) ) ;
#257 = APPLICATION_CONTEXT ( 'configuration controlled 3d designs of mechanical parts and assemblies' ) ;
#258 = CALENDAR_DATE ( 2022, 1, 7 ) ;
#259 = DIRECTION ( 'NONE',  ( 0.000000000000000000, 0.000000000000000000, 1.000000000000000000 ) ) ;
#260 = ORIENTED_EDGE ( 'NONE', *, *, #72, .T. ) ;
#261 = CALENDAR_DATE ( 2022, 1, 7 ) ;
#262 = ORIENTED_EDGE ( 'NONE', *, *, #144, .F. ) ;
#263 = DATE_TIME_ROLE ( 'classification_date' ) ;
#264 = VERTEX_POINT ( 'NONE', #230 ) ;
#265 = ORIENTED_EDGE ( 'NONE', *, *, #266, .F. ) ;
#266 = EDGE_CURVE ( 'NONE', #293, #218, #275, .T. ) ;
#267 = LOCAL_TIME ( 8, 15, 30.00000000000000000, #31 ) ;
#268 = AXIS2_PLACEMENT_3D ( 'NONE', #269, #271, #175 ) ;
#269 = CARTESIAN_POINT ( 'NONE',  ( 0.000000000000000000, 0.000000000000000000, 40.00000000000000000 ) ) ;
#270 = DIRECTION ( 'NONE',  ( 1.000000000000000000, 0.000000000000000000, 0.000000000000000000 ) ) ;
#271 = DIRECTION ( 'NONE',  ( 0.000000000000000000, 0.000000000000000000, 1.000000000000000000 ) ) ;
#272 = CARTESIAN_POINT ( 'NONE',  ( -42.50000000000000711, 5.204748896376252474E-15, -4.000000000000000000 ) ) ;
#273 = DIRECTION ( 'NONE',  ( -0.000000000000000000, -0.000000000000000000, -1.000000000000000000 ) ) ;
#274 = DIRECTION ( 'NONE',  ( -1.000000000000000000, 0.000000000000000000, 0.000000000000000000 ) ) ;
#275 = CIRCLE ( 'NONE', #222, 47.50000000000000711 ) ;
#276 = CARTESIAN_POINT ( 'NONE',  ( 0.000000000000000000, 0.000000000000000000, -4.000999999999997669 ) ) ;
#277 = CARTESIAN_POINT ( 'NONE',  ( 0.000000000000000000, 0.000000000000000000, 40.00000000000000000 ) ) ;
#278 = EDGE_CURVE ( 'NONE', #139, #30, #78, .T. ) ;
#279 = APPROVAL_PERSON_ORGANIZATION ( #285, #44, #156 ) ;
#280 = ORIENTED_EDGE ( 'NONE', *, *, #55, .F. ) ;
#281 = DATE_AND_TIME ( #86, #267 ) ;
#282 = ORIENTED_EDGE ( 'NONE', *, *, #144, .T. ) ;
#283 = APPROVAL_DATE_TIME ( #281, #44 ) ;
#284 = VERTEX_POINT ( 'NONE', #209 ) ;
#285 = PERSON_AND_ORGANIZATION ( #132, #305 ) ;
#286 = CIRCLE ( 'NONE', #195, 47.50000000000000711 ) ;
#287 = ORIENTED_EDGE ( 'NONE', *, *, #55, .T. ) ;
#288 = CC_DESIGN_PERSON_AND_ORGANIZATION_ASSIGNMENT ( #60, #106, ( #212 ) ) ;
#289 = EDGE_LOOP ( 'NONE', ( #185, #88, #304, #188 ) ) ;
#290 = DIRECTION ( 'NONE',  ( -0.000000000000000000, -0.000000000000000000, 1.000000000000000000 ) ) ;
#291 = CC_DESIGN_APPROVAL ( #140, ( #212 ) ) ;
#292 = DIRECTION ( 'NONE',  ( -0.000000000000000000, -0.000000000000000000, 1.000000000000000000 ) ) ;
#293 = VERTEX_POINT ( 'NONE', #325 ) ;
#294 = FACE_OUTER_BOUND ( 'NONE', #289, .T. ) ;
#295 = CARTESIAN_POINT ( 'NONE',  ( 0.000000000000000000, 0.000000000000000000, -4.000000000000000000 ) ) ;
#296 = CARTESIAN_POINT ( 'NONE',  ( -47.50000000000000711, 5.817072295949929004E-15, -4.000000000000000000 ) ) ;
#297 = AXIS2_PLACEMENT_3D ( 'NONE', #318, #46, #14 ) ;
#298 = DIRECTION ( 'NONE',  ( -0.000000000000000000, -0.000000000000000000, 1.000000000000000000 ) ) ;
#299 = CARTESIAN_POINT ( 'NONE',  ( 0.000000000000000000, 0.000000000000000000, -4.000000000000000000 ) ) ;
#300 = DIRECTION ( 'NONE',  ( 0.000000000000000000, 0.000000000000000000, -1.000000000000000000 ) ) ;
#301 = MECHANICAL_CONTEXT ( 'NONE', #257, 'mechanical' ) ;
#302 = CARTESIAN_POINT ( 'NONE',  ( 42.50000000000000711, 0.000000000000000000, -4.000000000000000000 ) ) ;
#303 = ADVANCED_FACE ( 'NONE', ( #24 ), #103, .T. ) ;
#304 = ORIENTED_EDGE ( 'NONE', *, *, #113, .T. ) ;
#305 = ORGANIZATION ( 'UNSPECIFIED', 'UNSPECIFIED', '' ) ;
#306 = EDGE_LOOP ( 'NONE', ( #110, #136, #163, #59 ) ) ;
#307 = COORDINATED_UNIVERSAL_TIME_OFFSET ( 1, 0, .AHEAD. ) ;
#308 = EDGE_LOOP ( 'NONE', ( #265, #199, #9, #183 ) ) ;
#309 = ADVANCED_FACE ( 'NONE', ( #52, #122 ), #233, .T. ) ;
#310 = EDGE_LOOP ( 'NONE', ( #85, #64 ) ) ;
#311 = EDGE_CURVE ( 'NONE', #35, #109, #184, .T. ) ;
#312 = ORIENTED_EDGE ( 'NONE', *, *, #266, .T. ) ;
#313 = ADVANCED_FACE ( 'NONE', ( #27 ), #205, .T. ) ;
#314 = DIRECTION ( 'NONE',  ( 1.000000000000000000, 0.000000000000000000, 0.000000000000000000 ) ) ;
#315 = SHAPE_DEFINITION_REPRESENTATION ( #173, #150 ) ;
#316 = AXIS2_PLACEMENT_3D ( 'NONE', #324, #208, #179 ) ;
#317 = CARTESIAN_POINT ( 'NONE',  ( 0.000000000000000000, 0.000000000000000000, 0.000000000000000000 ) ) ;
#318 = CARTESIAN_POINT ( 'NONE',  ( 0.000000000000000000, 0.000000000000000000, 40.00000000000000000 ) ) ;
#319 = DIRECTION ( 'NONE',  ( 1.000000000000000000, 0.000000000000000000, 0.000000000000000000 ) ) ;
#320 = PRODUCT_RELATED_PRODUCT_CATEGORY ( 'detail', '', ( #21 ) ) ;
#321 = EDGE_CURVE ( 'NONE', #217, #30, #39, .T. ) ;
#322 = CARTESIAN_POINT ( 'NONE',  ( 52.50000000000000000, 6.429395695523603956E-15, 40.00000000000000000 ) ) ;
#323 = AXIS2_PLACEMENT_3D ( 'NONE', #299, #250, #77 ) ;
#324 = CARTESIAN_POINT ( 'NONE',  ( 0.000000000000000000, 0.000000000000000000, -4.000999999999997669 ) ) ;
#325 = CARTESIAN_POINT ( 'NONE',  ( -47.50000000000000711, 5.817072295949929004E-15, -4.000000000000000000 ) ) ;
#326 = FACE_OUTER_BOUND ( 'NONE', #6, .T. ) ;
#327 = CIRCLE ( 'NONE', #207, 52.50000000000000000 ) ;
#328 = DIRECTION ( 'NONE',  ( -0.000000000000000000, -0.000000000000000000, 1.000000000000000000 ) ) ;
#329 = COORDINATED_UNIVERSAL_TIME_OFFSET ( 1, 0, .AHEAD. ) ;
ENDSEC;
END-ISO-10303-21;
