ISO-10303-21;
HEADER;
FILE_DESCRIPTION (( 'STEP AP203' ),
    '1' );
FILE_NAME ('R4-101.STEP',
    '2022-07-01T06:16:09',
    ( '' ),
    ( '' ),
    'SwSTEP 2.0',
    'SolidWorks 2022',
    '' );
FILE_SCHEMA (( 'CONFIG_CONTROL_DESIGN' ));
ENDSEC;

DATA;
#1 = PERSON_AND_ORGANIZATION_ROLE ( 'design_supplier' ) ;
#2 = DIRECTION ( 'NONE',  ( 1.000000000000000000, 0.000000000000000000, -0.000000000000000000 ) ) ;
#3 = DIRECTION ( 'NONE',  ( -1.000000000000000000, 0.000000000000000000, 0.000000000000000000 ) ) ;
#4 = ADVANCED_FACE ( 'NONE', ( #192 ), #268, .T. ) ;
#5 = LINE ( 'NONE', #34, #319 ) ;
#6 = CARTESIAN_POINT ( 'NONE',  ( 10.00000000000000000, 1.224646799147353256E-15, 15.00000000000000000 ) ) ;
#7 = CARTESIAN_POINT ( 'NONE',  ( 10.00000000000000000, 1.224646799147353256E-15, 15.00000000000000000 ) ) ;
#8 = DIRECTION ( 'NONE',  ( 1.000000000000000000, 0.000000000000000000, 0.000000000000000000 ) ) ;
#9 = VECTOR ( 'NONE', #270, 1000.000000000000000 ) ;
#10 = DIRECTION ( 'NONE',  ( 1.000000000000000000, 0.000000000000000000, 0.000000000000000000 ) ) ;
#11 = ORIENTED_EDGE ( 'NONE', *, *, #44, .F. ) ;
#12 = VERTEX_POINT ( 'NONE', #143 ) ;
#13 = UNCERTAINTY_MEASURE_WITH_UNIT (LENGTH_MEASURE( 1.000000000000000082E-05 ), #72, 'distance_accuracy_value', 'NONE');
#14 = MANIFOLD_SOLID_BREP ( 'Extrusion3', #99 ) ;
#15 = VERTEX_POINT ( 'NONE', #23 ) ;
#16 = AXIS2_PLACEMENT_3D ( 'NONE', #253, #257, #230 ) ;
#17 = AXIS2_PLACEMENT_3D ( 'NONE', #146, #322, #10 ) ;
#18 = ORIENTED_EDGE ( 'NONE', *, *, #216, .T. ) ;
#19 = ADVANCED_FACE ( 'NONE', ( #275 ), #224, .F. ) ;
#20 = CYLINDRICAL_SURFACE ( 'NONE', #141, 9.000000000000000000 ) ;
#21 = ORIENTED_EDGE ( 'NONE', *, *, #278, .T. ) ;
#22 =( NAMED_UNIT ( * ) PLANE_ANGLE_UNIT ( ) SI_UNIT ( $, .RADIAN. ) );
#23 = CARTESIAN_POINT ( 'NONE',  ( -5.750000000000000000, 7.041719095097280880E-16, 15.00000000000000000 ) ) ;
#24 = APPROVAL_ROLE ( '' ) ;
#25 = CIRCLE ( 'NONE', #82, 10.00000000000000000 ) ;
#26 = DATE_TIME_ROLE ( 'classification_date' ) ;
#27 = ADVANCED_BREP_SHAPE_REPRESENTATION ( 'R4-101', ( #14, #17 ), #31 ) ;
#28 = APPROVAL_ROLE ( '' ) ;
#29 = CARTESIAN_POINT ( 'NONE',  ( 0.000000000000000000, 0.000000000000000000, -10.00000000000000000 ) ) ;
#30 = APPROVAL_STATUS ( 'not_yet_approved' ) ;
#31 =( GEOMETRIC_REPRESENTATION_CONTEXT ( 3 ) GLOBAL_UNCERTAINTY_ASSIGNED_CONTEXT ( ( #13 ) ) GLOBAL_UNIT_ASSIGNED_CONTEXT ( ( #72, #22, #314 ) ) REPRESENTATION_CONTEXT ( 'NONE', 'WORKASPACE' ) );
#32 = VECTOR ( 'NONE', #184, 1000.000000000000000 ) ;
#33 = EDGE_CURVE ( 'NONE', #139, #324, #276, .T. ) ;
#34 = CARTESIAN_POINT ( 'NONE',  ( -10.00000000000000000, 0.000000000000000000, 15.00000000000000000 ) ) ;
#35 = CARTESIAN_POINT ( 'NONE',  ( 0.000000000000000000, 0.000000000000000000, 0.000000000000000000 ) ) ;
#36 = DIRECTION ( 'NONE',  ( -1.000000000000000000, 0.000000000000000000, 0.000000000000000000 ) ) ;
#37 = CC_DESIGN_PERSON_AND_ORGANIZATION_ASSIGNMENT ( #152, #150, ( #250 ) ) ;
#38 = AXIS2_PLACEMENT_3D ( 'NONE', #29, #145, #104 ) ;
#39 = DIRECTION ( 'NONE',  ( -0.000000000000000000, -0.000000000000000000, 1.000000000000000000 ) ) ;
#40 = DIRECTION ( 'NONE',  ( 1.000000000000000000, 0.000000000000000000, 0.000000000000000000 ) ) ;
#41 = DIRECTION ( 'NONE',  ( -0.000000000000000000, -0.000000000000000000, 1.000000000000000000 ) ) ;
#42 = VERTEX_POINT ( 'NONE', #124 ) ;
#43 = AXIS2_PLACEMENT_3D ( 'NONE', #84, #157, #205 ) ;
#44 = EDGE_CURVE ( 'NONE', #291, #15, #74, .T. ) ;
#45 = CARTESIAN_POINT ( 'NONE',  ( -10.00000000000000000, 0.000000000000000000, 15.00000000000000000 ) ) ;
#46 = ORIENTED_EDGE ( 'NONE', *, *, #90, .F. ) ;
#47 = PRODUCT_DEFINITION_SHAPE ( 'NONE', 'NONE',  #226 ) ;
#48 = ORIENTED_EDGE ( 'NONE', *, *, #173, .T. ) ;
#49 = EDGE_LOOP ( 'NONE', ( #60, #265, #68, #138 ) ) ;
#50 = ADVANCED_FACE ( 'NONE', ( #220, #247 ), #180, .F. ) ;
#51 = DIRECTION ( 'NONE',  ( -1.000000000000000000, 0.000000000000000000, 0.000000000000000000 ) ) ;
#52 = FACE_OUTER_BOUND ( 'NONE', #214, .T. ) ;
#53 = CARTESIAN_POINT ( 'NONE',  ( 0.000000000000000000, 0.000000000000000000, 0.000000000000000000 ) ) ;
#54 = CALENDAR_DATE ( 2022, 1, 7 ) ;
#55 = CARTESIAN_POINT ( 'NONE',  ( 0.000000000000000000, 0.000000000000000000, -10.00099999999999945 ) ) ;
#56 = SHAPE_DEFINITION_REPRESENTATION ( #47, #27 ) ;
#57 = COORDINATED_UNIVERSAL_TIME_OFFSET ( 1, 0, .AHEAD. ) ;
#58 = PLANE ( 'NONE',  #238 ) ;
#59 = DIRECTION ( 'NONE',  ( 1.000000000000000000, 0.000000000000000000, 0.000000000000000000 ) ) ;
#60 = ORIENTED_EDGE ( 'NONE', *, *, #173, .F. ) ;
#61 = APPROVAL_DATE_TIME ( #153, #189 ) ;
#62 = CARTESIAN_POINT ( 'NONE',  ( 5.750000000000000000, 0.000000000000000000, -10.00099999999999945 ) ) ;
#63 = PLANE ( 'NONE',  #107 ) ;
#64 = AXIS2_PLACEMENT_3D ( 'NONE', #55, #125, #303 ) ;
#65 = DIRECTION ( 'NONE',  ( 1.000000000000000000, 0.000000000000000000, 0.000000000000000000 ) ) ;
#66 = PERSON_AND_ORGANIZATION_ROLE ( 'creator' ) ;
#67 = ORIENTED_EDGE ( 'NONE', *, *, #144, .F. ) ;
#68 = ORIENTED_EDGE ( 'NONE', *, *, #108, .T. ) ;
#69 = VERTEX_POINT ( 'NONE', #151 ) ;
#70 = EDGE_LOOP ( 'NONE', ( #67, #46, #21, #115 ) ) ;
#71 = ORIENTED_EDGE ( 'NONE', *, *, #108, .F. ) ;
#72 =( LENGTH_UNIT ( ) NAMED_UNIT ( * ) SI_UNIT ( .MILLI., .METRE. ) );
#73 = PERSON_AND_ORGANIZATION ( #273, #211 ) ;
#74 = LINE ( 'NONE', #76, #9 ) ;
#75 = AXIS2_PLACEMENT_3D ( 'NONE', #53, #179, #2 ) ;
#76 = CARTESIAN_POINT ( 'NONE',  ( -5.750000000000000000, 7.041719095097280880E-16, -10.00099999999999945 ) ) ;
#77 = CARTESIAN_POINT ( 'NONE',  ( 0.000000000000000000, 0.000000000000000000, -10.00000000000000000 ) ) ;
#78 = EDGE_CURVE ( 'NONE', #69, #291, #255, .T. ) ;
#79 = PRODUCT ( 'R4-101', 'R4-101', '', ( #89 ) ) ;
#80 = FACE_OUTER_BOUND ( 'NONE', #320, .T. ) ;
#81 = DIRECTION ( 'NONE',  ( 1.000000000000000000, 0.000000000000000000, 0.000000000000000000 ) ) ;
#82 = AXIS2_PLACEMENT_3D ( 'NONE', #35, #311, #8 ) ;
#83 = COORDINATED_UNIVERSAL_TIME_OFFSET ( 1, 0, .AHEAD. ) ;
#84 = CARTESIAN_POINT ( 'NONE',  ( 0.000000000000000000, 0.000000000000000000, 0.000000000000000000 ) ) ;
#85 = CC_DESIGN_PERSON_AND_ORGANIZATION_ASSIGNMENT ( #246, #280, ( #171 ) ) ;
#86 = DIRECTION ( 'NONE',  ( -1.000000000000000000, 0.000000000000000000, -0.000000000000000000 ) ) ;
#87 = CARTESIAN_POINT ( 'NONE',  ( -9.000000000000000000, 1.102182119232617714E-15, -10.00000000000000000 ) ) ;
#88 = AXIS2_PLACEMENT_3D ( 'NONE', #310, #129, #65 ) ;
#89 = MECHANICAL_CONTEXT ( 'NONE', #122, 'mechanical' ) ;
#90 = EDGE_CURVE ( 'NONE', #217, #236, #327, .T. ) ;
#91 = ORIENTED_EDGE ( 'NONE', *, *, #100, .T. ) ;
#92 = ORIENTED_EDGE ( 'NONE', *, *, #90, .T. ) ;
#93 = AXIS2_PLACEMENT_3D ( 'NONE', #77, #279, #242 ) ;
#94 = VERTEX_POINT ( 'NONE', #328 ) ;
#95 = ORIENTED_EDGE ( 'NONE', *, *, #254, .T. ) ;
#96 = EDGE_LOOP ( 'NONE', ( #234, #164 ) ) ;
#97 = LOCAL_TIME ( 8, 16, 9.000000000000000000, #83 ) ;
#98 = PERSON_AND_ORGANIZATION_ROLE ( 'design_owner' ) ;
#99 = CLOSED_SHELL ( 'NONE', ( #284, #318, #102, #50, #4, #204, #193, #168, #19 ) ) ;
#100 = EDGE_CURVE ( 'NONE', #324, #139, #304, .T. ) ;
#101 = CALENDAR_DATE ( 2022, 1, 7 ) ;
#102 = ADVANCED_FACE ( 'NONE', ( #80 ), #229, .T. ) ;
#103 = AXIS2_PLACEMENT_3D ( 'NONE', #149, #177, #202 ) ;
#104 = DIRECTION ( 'NONE',  ( -1.000000000000000000, 0.000000000000000000, 0.000000000000000000 ) ) ;
#105 = CARTESIAN_POINT ( 'NONE',  ( 0.000000000000000000, 0.000000000000000000, 15.00000000000000000 ) ) ;
#106 = CARTESIAN_POINT ( 'NONE',  ( 0.000000000000000000, 0.000000000000000000, -10.00000000000000000 ) ) ;
#107 = AXIS2_PLACEMENT_3D ( 'NONE', #232, #309, #306 ) ;
#108 = EDGE_CURVE ( 'NONE', #324, #260, #5, .T. ) ;
#109 = FACE_BOUND ( 'NONE', #96, .T. ) ;
#110 = DIRECTION ( 'NONE',  ( -0.000000000000000000, -0.000000000000000000, -1.000000000000000000 ) ) ;
#111 = EDGE_CURVE ( 'NONE', #219, #94, #245, .T. ) ;
#112 = PERSON_AND_ORGANIZATION ( #273, #211 ) ;
#113 = CIRCLE ( 'NONE', #43, 9.000000000000000000 ) ;
#114 = ORIENTED_EDGE ( 'NONE', *, *, #307, .F. ) ;
#115 = ORIENTED_EDGE ( 'NONE', *, *, #111, .T. ) ;
#116 = ORIENTED_EDGE ( 'NONE', *, *, #223, .F. ) ;
#117 = CIRCLE ( 'NONE', #16, 9.000000000000000000 ) ;
#118 = ORIENTED_EDGE ( 'NONE', *, *, #216, .F. ) ;
#119 = CALENDAR_DATE ( 2022, 1, 7 ) ;
#120 = ORIENTED_EDGE ( 'NONE', *, *, #156, .F. ) ;
#121 = DIRECTION ( 'NONE',  ( -0.000000000000000000, -0.000000000000000000, 1.000000000000000000 ) ) ;
#122 = APPLICATION_CONTEXT ( 'configuration controlled 3d designs of mechanical parts and assemblies' ) ;
#123 = COORDINATED_UNIVERSAL_TIME_OFFSET ( 1, 0, .AHEAD. ) ;
#124 = CARTESIAN_POINT ( 'NONE',  ( 5.750000000000000000, 0.000000000000000000, 15.00000000000000000 ) ) ;
#125 = DIRECTION ( 'NONE',  ( -0.000000000000000000, -0.000000000000000000, 1.000000000000000000 ) ) ;
#126 = CIRCLE ( 'NONE', #174, 5.750000000000000000 ) ;
#127 = FACE_OUTER_BOUND ( 'NONE', #190, .T. ) ;
#128 = PERSON_AND_ORGANIZATION ( #273, #211 ) ;
#129 = DIRECTION ( 'NONE',  ( -0.000000000000000000, -0.000000000000000000, -1.000000000000000000 ) ) ;
#130 = DIRECTION ( 'NONE',  ( 1.000000000000000000, 0.000000000000000000, 0.000000000000000000 ) ) ;
#131 = DIRECTION ( 'NONE',  ( 0.000000000000000000, 0.000000000000000000, 1.000000000000000000 ) ) ;
#132 = EDGE_CURVE ( 'NONE', #236, #217, #117, .T. ) ;
#133 = CARTESIAN_POINT ( 'NONE',  ( 0.000000000000000000, 0.000000000000000000, 0.000000000000000000 ) ) ;
#134 = APPLICATION_PROTOCOL_DEFINITION ( 'international standard', 'config_control_design', 1994, #136 ) ;
#135 = ORIENTED_EDGE ( 'NONE', *, *, #156, .T. ) ;
#136 = APPLICATION_CONTEXT ( 'configuration controlled 3d designs of mechanical parts and assemblies' ) ;
#137 = DIRECTION ( 'NONE',  ( -0.000000000000000000, -0.000000000000000000, 1.000000000000000000 ) ) ;
#138 = ORIENTED_EDGE ( 'NONE', *, *, #223, .T. ) ;
#139 = VERTEX_POINT ( 'NONE', #6 ) ;
#140 = ORIENTED_EDGE ( 'NONE', *, *, #132, .T. ) ;
#141 = AXIS2_PLACEMENT_3D ( 'NONE', #315, #41, #329 ) ;
#142 = LOCAL_TIME ( 8, 16, 9.000000000000000000, #187 ) ;
#143 = CARTESIAN_POINT ( 'NONE',  ( 10.00000000000000000, 1.224646799147353256E-15, 0.000000000000000000 ) ) ;
#144 = EDGE_CURVE ( 'NONE', #236, #94, #285, .T. ) ;
#145 = DIRECTION ( 'NONE',  ( -0.000000000000000000, -0.000000000000000000, 1.000000000000000000 ) ) ;
#146 = CARTESIAN_POINT ( 'NONE',  ( 0.000000000000000000, 0.000000000000000000, 0.000000000000000000 ) ) ;
#147 = CARTESIAN_POINT ( 'NONE',  ( -5.750000000000000000, 7.041719095097280880E-16, -10.00000000000000000 ) ) ;
#148 = AXIS2_PLACEMENT_3D ( 'NONE', #162, #110, #36 ) ;
#149 = CARTESIAN_POINT ( 'NONE',  ( 0.000000000000000000, 0.000000000000000000, 15.00000000000000000 ) ) ;
#150 = PERSON_AND_ORGANIZATION_ROLE ( 'creator' ) ;
#151 = CARTESIAN_POINT ( 'NONE',  ( 5.750000000000000000, 0.000000000000000000, -10.00000000000000000 ) ) ;
#152 = PERSON_AND_ORGANIZATION ( #273, #211 ) ;
#153 = DATE_AND_TIME ( #222, #263 ) ;
#154 = LINE ( 'NONE', #62, #313 ) ;
#155 = DATE_AND_TIME ( #206, #197 ) ;
#156 = EDGE_CURVE ( 'NONE', #69, #42, #154, .T. ) ;
#157 = DIRECTION ( 'NONE',  ( -0.000000000000000000, -0.000000000000000000, -1.000000000000000000 ) ) ;
#158 = ORIENTED_EDGE ( 'NONE', *, *, #111, .F. ) ;
#159 = SECURITY_CLASSIFICATION_LEVEL ( 'unclassified' ) ;
#160 = DIRECTION ( 'NONE',  ( -0.000000000000000000, -0.000000000000000000, 1.000000000000000000 ) ) ;
#161 = CARTESIAN_POINT ( 'NONE',  ( 9.000000000000000000, 0.000000000000000000, -10.00000000000000000 ) ) ;
#162 = CARTESIAN_POINT ( 'NONE',  ( 0.000000000000000000, 0.000000000000000000, 15.00000000000000000 ) ) ;
#163 = DIRECTION ( 'NONE',  ( 0.000000000000000000, 0.000000000000000000, 1.000000000000000000 ) ) ;
#164 = ORIENTED_EDGE ( 'NONE', *, *, #248, .T. ) ;
#165 = DATE_AND_TIME ( #54, #225 ) ;
#166 = EDGE_LOOP ( 'NONE', ( #116, #316 ) ) ;
#167 = CIRCLE ( 'NONE', #292, 5.750000000000000000 ) ;
#168 = ADVANCED_FACE ( 'NONE', ( #109, #127 ), #58, .T. ) ;
#169 = EDGE_LOOP ( 'NONE', ( #11, #266, #135, #295 ) ) ;
#170 = DIRECTION ( 'NONE',  ( -0.000000000000000000, -0.000000000000000000, -1.000000000000000000 ) ) ;
#171 = SECURITY_CLASSIFICATION ( '', '', #159 ) ;
#172 = ORIENTED_EDGE ( 'NONE', *, *, #144, .T. ) ;
#173 = EDGE_CURVE ( 'NONE', #139, #12, #181, .T. ) ;
#174 = AXIS2_PLACEMENT_3D ( 'NONE', #105, #131, #81 ) ;
#175 = CC_DESIGN_APPROVAL ( #200, ( #226 ) ) ;
#176 = DIRECTION ( 'NONE',  ( 1.000000000000000000, 0.000000000000000000, 0.000000000000000000 ) ) ;
#177 = DIRECTION ( 'NONE',  ( 0.000000000000000000, 0.000000000000000000, 1.000000000000000000 ) ) ;
#178 = DATE_AND_TIME ( #101, #97 ) ;
#179 = DIRECTION ( 'NONE',  ( 0.000000000000000000, 0.000000000000000000, 1.000000000000000000 ) ) ;
#180 = PLANE ( 'NONE',  #75 ) ;
#181 = LINE ( 'NONE', #7, #32 ) ;
#182 = CARTESIAN_POINT ( 'NONE',  ( 0.000000000000000000, 0.000000000000000000, -10.00000000000000000 ) ) ;
#183 = DIRECTION ( 'NONE',  ( 0.000000000000000000, 0.000000000000000000, 1.000000000000000000 ) ) ;
#184 = DIRECTION ( 'NONE',  ( -0.000000000000000000, -0.000000000000000000, -1.000000000000000000 ) ) ;
#185 = AXIS2_PLACEMENT_3D ( 'NONE', #210, #160, #40 ) ;
#186 = DIRECTION ( 'NONE',  ( -0.000000000000000000, -0.000000000000000000, 1.000000000000000000 ) ) ;
#187 = COORDINATED_UNIVERSAL_TIME_OFFSET ( 1, 0, .AHEAD. ) ;
#188 = ORIENTED_EDGE ( 'NONE', *, *, #271, .F. ) ;
#189 = APPROVAL ( #243, 'UNSPECIFIED' ) ;
#190 = EDGE_LOOP ( 'NONE', ( #92, #140 ) ) ;
#191 = AXIS2_PLACEMENT_3D ( 'NONE', #294, #170, #51 ) ;
#192 = FACE_OUTER_BOUND ( 'NONE', #49, .T. ) ;
#193 = ADVANCED_FACE ( 'NONE', ( #283 ), #281, .T. ) ;
#194 = EDGE_LOOP ( 'NONE', ( #237, #172, #18, #215 ) ) ;
#195 = ORIENTED_EDGE ( 'NONE', *, *, #248, .F. ) ;
#196 = VECTOR ( 'NONE', #137, 1000.000000000000000 ) ;
#197 = LOCAL_TIME ( 8, 16, 9.000000000000000000, #57 ) ;
#198 = APPROVAL_STATUS ( 'not_yet_approved' ) ;
#199 = APPROVAL_ROLE ( '' ) ;
#200 = APPROVAL ( #198, 'UNSPECIFIED' ) ;
#201 = VECTOR ( 'NONE', #186, 1000.000000000000000 ) ;
#202 = DIRECTION ( 'NONE',  ( 1.000000000000000000, 0.000000000000000000, 0.000000000000000000 ) ) ;
#203 = DIRECTION ( 'NONE',  ( 0.000000000000000000, 0.000000000000000000, 1.000000000000000000 ) ) ;
#204 = ADVANCED_FACE ( 'NONE', ( #227, #286 ), #63, .T. ) ;
#205 = DIRECTION ( 'NONE',  ( 1.000000000000000000, 0.000000000000000000, 0.000000000000000000 ) ) ;
#206 = CALENDAR_DATE ( 2022, 1, 7 ) ;
#207 = DIRECTION ( 'NONE',  ( 0.000000000000000000, 0.000000000000000000, -1.000000000000000000 ) ) ;
#208 = CC_DESIGN_DATE_AND_TIME_ASSIGNMENT ( #178, #26, ( #171 ) ) ;
#209 = CARTESIAN_POINT ( 'NONE',  ( 0.000000000000000000, 0.000000000000000000, 15.00000000000000000 ) ) ;
#210 = CARTESIAN_POINT ( 'NONE',  ( 0.000000000000000000, 0.000000000000000000, -10.00000000000000000 ) ) ;
#211 = ORGANIZATION ( 'UNSPECIFIED', 'UNSPECIFIED', '' ) ;
#212 = COORDINATED_UNIVERSAL_TIME_OFFSET ( 1, 0, .AHEAD. ) ;
#213 = ORIENTED_EDGE ( 'NONE', *, *, #33, .F. ) ;
#214 = EDGE_LOOP ( 'NONE', ( #195, #239, #293, #120 ) ) ;
#215 = ORIENTED_EDGE ( 'NONE', *, *, #278, .F. ) ;
#216 = EDGE_CURVE ( 'NONE', #94, #219, #113, .T. ) ;
#217 = VERTEX_POINT ( 'NONE', #161 ) ;
#218 = PERSON_AND_ORGANIZATION ( #273, #211 ) ;
#219 = VERTEX_POINT ( 'NONE', #288 ) ;
#220 = FACE_OUTER_BOUND ( 'NONE', #166, .T. ) ;
#221 = CC_DESIGN_APPROVAL ( #189, ( #250 ) ) ;
#222 = CALENDAR_DATE ( 2022, 1, 7 ) ;
#223 = EDGE_CURVE ( 'NONE', #260, #12, #25, .T. ) ;
#224 = CYLINDRICAL_SURFACE ( 'NONE', #64, 5.750000000000000000 ) ;
#225 = LOCAL_TIME ( 8, 16, 9.000000000000000000, #212 ) ;
#226 = PRODUCT_DEFINITION ( 'UNKNOWN', '', #250, #312 ) ;
#227 = FACE_BOUND ( 'NONE', #264, .T. ) ;
#228 = PERSON_AND_ORGANIZATION ( #273, #211 ) ;
#229 = CYLINDRICAL_SURFACE ( 'NONE', #148, 10.00000000000000000 ) ;
#230 = DIRECTION ( 'NONE',  ( -1.000000000000000000, 0.000000000000000000, 0.000000000000000000 ) ) ;
#231 = LINE ( 'NONE', #241, #196 ) ;
#232 = CARTESIAN_POINT ( 'NONE',  ( 0.000000000000000000, 0.000000000000000000, 15.00000000000000000 ) ) ;
#233 = FACE_OUTER_BOUND ( 'NONE', #194, .T. ) ;
#234 = ORIENTED_EDGE ( 'NONE', *, *, #78, .T. ) ;
#235 = CYLINDRICAL_SURFACE ( 'NONE', #267, 5.750000000000000000 ) ;
#236 = VERTEX_POINT ( 'NONE', #256 ) ;
#237 = ORIENTED_EDGE ( 'NONE', *, *, #132, .F. ) ;
#238 = AXIS2_PLACEMENT_3D ( 'NONE', #106, #207, #86 ) ;
#239 = ORIENTED_EDGE ( 'NONE', *, *, #44, .T. ) ;
#240 = EDGE_LOOP ( 'NONE', ( #91, #321 ) ) ;
#241 = CARTESIAN_POINT ( 'NONE',  ( 9.000000000000000000, 0.000000000000000000, -10.00000000000000000 ) ) ;
#242 = DIRECTION ( 'NONE',  ( -1.000000000000000000, 0.000000000000000000, 0.000000000000000000 ) ) ;
#243 = APPROVAL_STATUS ( 'not_yet_approved' ) ;
#244 = CC_DESIGN_PERSON_AND_ORGANIZATION_ASSIGNMENT ( #73, #66, ( #226 ) ) ;
#245 = CIRCLE ( 'NONE', #88, 9.000000000000000000 ) ;
#246 = PERSON_AND_ORGANIZATION ( #273, #211 ) ;
#247 = FACE_BOUND ( 'NONE', #317, .T. ) ;
#248 = EDGE_CURVE ( 'NONE', #291, #69, #167, .T. ) ;
#249 = APPROVAL_PERSON_ORGANIZATION ( #112, #200, #199 ) ;
#250 = PRODUCT_DEFINITION_FORMATION_WITH_SPECIFIED_SOURCE ( 'ANY', '', #79, .NOT_KNOWN. ) ;
#251 = DIRECTION ( 'NONE',  ( -0.000000000000000000, -0.000000000000000000, 1.000000000000000000 ) ) ;
#252 = DIRECTION ( 'NONE',  ( -0.000000000000000000, -0.000000000000000000, -1.000000000000000000 ) ) ;
#253 = CARTESIAN_POINT ( 'NONE',  ( 0.000000000000000000, 0.000000000000000000, -10.00000000000000000 ) ) ;
#254 = EDGE_CURVE ( 'NONE', #12, #260, #277, .T. ) ;
#255 = CIRCLE ( 'NONE', #38, 5.750000000000000000 ) ;
#256 = CARTESIAN_POINT ( 'NONE',  ( -9.000000000000000000, 1.102182119232617714E-15, -10.00000000000000000 ) ) ;
#257 = DIRECTION ( 'NONE',  ( 0.000000000000000000, 0.000000000000000000, -1.000000000000000000 ) ) ;
#258 = CC_DESIGN_PERSON_AND_ORGANIZATION_ASSIGNMENT ( #128, #1, ( #250 ) ) ;
#259 = DIRECTION ( 'NONE',  ( 1.000000000000000000, 0.000000000000000000, 0.000000000000000000 ) ) ;
#260 = VERTEX_POINT ( 'NONE', #305 ) ;
#261 = AXIS2_PLACEMENT_3D ( 'NONE', #296, #163, #176 ) ;
#262 = DATE_TIME_ROLE ( 'creation_date' ) ;
#263 = LOCAL_TIME ( 8, 16, 9.000000000000000000, #123 ) ;
#264 = EDGE_LOOP ( 'NONE', ( #114, #188 ) ) ;
#265 = ORIENTED_EDGE ( 'NONE', *, *, #100, .F. ) ;
#266 = ORIENTED_EDGE ( 'NONE', *, *, #78, .F. ) ;
#267 = AXIS2_PLACEMENT_3D ( 'NONE', #274, #121, #259 ) ;
#268 = CYLINDRICAL_SURFACE ( 'NONE', #191, 10.00000000000000000 ) ;
#269 = APPROVAL_PERSON_ORGANIZATION ( #228, #302, #28 ) ;
#270 = DIRECTION ( 'NONE',  ( -0.000000000000000000, -0.000000000000000000, 1.000000000000000000 ) ) ;
#271 = EDGE_CURVE ( 'NONE', #15, #42, #126, .T. ) ;
#272 = APPLICATION_PROTOCOL_DEFINITION ( 'international standard', 'config_control_design', 1994, #122 ) ;
#273 = PERSON ( 'UNSPECIFIED', 'UNSPECIFIED', 'UNSPECIFIED', ('UNSPECIFIED'), ('UNSPECIFIED'), ('UNSPECIFIED') ) ;
#274 = CARTESIAN_POINT ( 'NONE',  ( 0.000000000000000000, 0.000000000000000000, -10.00099999999999945 ) ) ;
#275 = FACE_OUTER_BOUND ( 'NONE', #169, .T. ) ;
#276 = CIRCLE ( 'NONE', #103, 10.00000000000000000 ) ;
#277 = CIRCLE ( 'NONE', #297, 10.00000000000000000 ) ;
#278 = EDGE_CURVE ( 'NONE', #217, #219, #231, .T. ) ;
#279 = DIRECTION ( 'NONE',  ( 0.000000000000000000, 0.000000000000000000, -1.000000000000000000 ) ) ;
#280 = PERSON_AND_ORGANIZATION_ROLE ( 'classification_officer' ) ;
#281 = CYLINDRICAL_SURFACE ( 'NONE', #185, 9.000000000000000000 ) ;
#282 = APPROVAL_PERSON_ORGANIZATION ( #218, #189, #24 ) ;
#283 = FACE_OUTER_BOUND ( 'NONE', #70, .T. ) ;
#284 = ADVANCED_FACE ( 'NONE', ( #52 ), #235, .F. ) ;
#285 = LINE ( 'NONE', #87, #201 ) ;
#286 = FACE_OUTER_BOUND ( 'NONE', #240, .T. ) ;
#287 = CIRCLE ( 'NONE', #261, 5.750000000000000000 ) ;
#288 = CARTESIAN_POINT ( 'NONE',  ( 9.000000000000000000, 0.000000000000000000, 0.000000000000000000 ) ) ;
#289 = CC_DESIGN_PERSON_AND_ORGANIZATION_ASSIGNMENT ( #325, #98, ( #79 ) ) ;
#290 = APPROVAL_DATE_TIME ( #300, #200 ) ;
#291 = VERTEX_POINT ( 'NONE', #147 ) ;
#292 = AXIS2_PLACEMENT_3D ( 'NONE', #182, #39, #3 ) ;
#293 = ORIENTED_EDGE ( 'NONE', *, *, #271, .T. ) ;
#294 = CARTESIAN_POINT ( 'NONE',  ( 0.000000000000000000, 0.000000000000000000, 15.00000000000000000 ) ) ;
#295 = ORIENTED_EDGE ( 'NONE', *, *, #307, .T. ) ;
#296 = CARTESIAN_POINT ( 'NONE',  ( 0.000000000000000000, 0.000000000000000000, 15.00000000000000000 ) ) ;
#297 = AXIS2_PLACEMENT_3D ( 'NONE', #133, #203, #59 ) ;
#298 = CC_DESIGN_APPROVAL ( #302, ( #171 ) ) ;
#299 = PRODUCT_RELATED_PRODUCT_CATEGORY ( 'detail', '', ( #79 ) ) ;
#300 = DATE_AND_TIME ( #119, #142 ) ;
#301 = APPROVAL_DATE_TIME ( #155, #302 ) ;
#302 = APPROVAL ( #30, 'UNSPECIFIED' ) ;
#303 = DIRECTION ( 'NONE',  ( 1.000000000000000000, 0.000000000000000000, 0.000000000000000000 ) ) ;
#304 = CIRCLE ( 'NONE', #308, 10.00000000000000000 ) ;
#305 = CARTESIAN_POINT ( 'NONE',  ( -10.00000000000000000, 0.000000000000000000, 0.000000000000000000 ) ) ;
#306 = DIRECTION ( 'NONE',  ( 1.000000000000000000, 0.000000000000000000, -0.000000000000000000 ) ) ;
#307 = EDGE_CURVE ( 'NONE', #42, #15, #287, .T. ) ;
#308 = AXIS2_PLACEMENT_3D ( 'NONE', #209, #183, #130 ) ;
#309 = DIRECTION ( 'NONE',  ( 0.000000000000000000, 0.000000000000000000, 1.000000000000000000 ) ) ;
#310 = CARTESIAN_POINT ( 'NONE',  ( 0.000000000000000000, 0.000000000000000000, 0.000000000000000000 ) ) ;
#311 = DIRECTION ( 'NONE',  ( 0.000000000000000000, 0.000000000000000000, 1.000000000000000000 ) ) ;
#312 = DESIGN_CONTEXT ( 'detailed design', #136, 'design' ) ;
#313 = VECTOR ( 'NONE', #251, 1000.000000000000000 ) ;
#314 =( NAMED_UNIT ( * ) SI_UNIT ( $, .STERADIAN. ) SOLID_ANGLE_UNIT ( ) );
#315 = CARTESIAN_POINT ( 'NONE',  ( 0.000000000000000000, 0.000000000000000000, -10.00000000000000000 ) ) ;
#316 = ORIENTED_EDGE ( 'NONE', *, *, #254, .F. ) ;
#317 = EDGE_LOOP ( 'NONE', ( #158, #118 ) ) ;
#318 = ADVANCED_FACE ( 'NONE', ( #233 ), #20, .T. ) ;
#319 = VECTOR ( 'NONE', #252, 1000.000000000000000 ) ;
#320 = EDGE_LOOP ( 'NONE', ( #213, #48, #95, #71 ) ) ;
#321 = ORIENTED_EDGE ( 'NONE', *, *, #33, .T. ) ;
#322 = DIRECTION ( 'NONE',  ( 0.000000000000000000, 0.000000000000000000, 1.000000000000000000 ) ) ;
#323 = CC_DESIGN_DATE_AND_TIME_ASSIGNMENT ( #165, #262, ( #226 ) ) ;
#324 = VERTEX_POINT ( 'NONE', #45 ) ;
#325 = PERSON_AND_ORGANIZATION ( #273, #211 ) ;
#326 = CC_DESIGN_SECURITY_CLASSIFICATION ( #171, ( #250 ) ) ;
#327 = CIRCLE ( 'NONE', #93, 9.000000000000000000 ) ;
#328 = CARTESIAN_POINT ( 'NONE',  ( -9.000000000000000000, 1.102182119232617714E-15, 0.000000000000000000 ) ) ;
#329 = DIRECTION ( 'NONE',  ( 1.000000000000000000, 0.000000000000000000, 0.000000000000000000 ) ) ;
ENDSEC;
END-ISO-10303-21;
