ISO-10303-21;
HEADER;
FILE_DESCRIPTION (( 'STEP AP203' ),
    '1' );
FILE_NAME ('R4-102.STEP',
    '2022-07-01T06:16:35',
    ( '' ),
    ( '' ),
    'SwSTEP 2.0',
    'SolidWorks 2022',
    '' );
FILE_SCHEMA (( 'CONFIG_CONTROL_DESIGN' ));
ENDSEC;

DATA;
#1 = CARTESIAN_POINT ( 'NONE',  ( 0.000000000000000000, 0.000000000000000000, 15.00000000000000000 ) ) ;
#2 = PLANE ( 'NONE',  #223 ) ;
#3 = ADVANCED_FACE ( 'NONE', ( #163 ), #244, .F. ) ;
#4 = DIRECTION ( 'NONE',  ( 0.000000000000000000, 0.000000000000000000, -1.000000000000000000 ) ) ;
#5 = CARTESIAN_POINT ( 'NONE',  ( 0.000000000000000000, 0.000000000000000000, 15.00000000000000000 ) ) ;
#6 = ORIENTED_EDGE ( 'NONE', *, *, #298, .F. ) ;
#7 = CARTESIAN_POINT ( 'NONE',  ( 0.000000000000000000, 0.000000000000000000, 15.00000000000000000 ) ) ;
#8 = LINE ( 'NONE', #231, #50 ) ;
#9 = CIRCLE ( 'NONE', #46, 7.500000000000000000 ) ;
#10 = SECURITY_CLASSIFICATION ( '', '', #325 ) ;
#11 = CARTESIAN_POINT ( 'NONE',  ( 0.000000000000000000, 0.000000000000000000, 15.00000000000000000 ) ) ;
#12 = ORIENTED_EDGE ( 'NONE', *, *, #22, .T. ) ;
#13 = DIRECTION ( 'NONE',  ( 1.000000000000000000, 0.000000000000000000, 0.000000000000000000 ) ) ;
#14 = DIRECTION ( 'NONE',  ( -0.000000000000000000, -0.000000000000000000, 1.000000000000000000 ) ) ;
#15 = APPROVAL ( #81, 'UNSPECIFIED' ) ;
#16 = AXIS2_PLACEMENT_3D ( 'NONE', #314, #139, #280 ) ;
#17 = CARTESIAN_POINT ( 'NONE',  ( 0.000000000000000000, 0.000000000000000000, 0.000000000000000000 ) ) ;
#18 = COORDINATED_UNIVERSAL_TIME_OFFSET ( 1, 0, .AHEAD. ) ;
#19 = VERTEX_POINT ( 'NONE', #27 ) ;
#20 = PERSON_AND_ORGANIZATION_ROLE ( 'design_supplier' ) ;
#21 = ORIENTED_EDGE ( 'NONE', *, *, #221, .T. ) ;
#22 = EDGE_CURVE ( 'NONE', #281, #284, #300, .T. ) ;
#23 = CLOSED_SHELL ( 'NONE', ( #135, #200, #79, #64, #262, #189, #209, #77, #3 ) ) ;
#24 = PERSON_AND_ORGANIZATION_ROLE ( 'classification_officer' ) ;
#25 = DIRECTION ( 'NONE',  ( 0.000000000000000000, 0.000000000000000000, 1.000000000000000000 ) ) ;
#26 = CARTESIAN_POINT ( 'NONE',  ( 0.000000000000000000, 0.000000000000000000, 0.000000000000000000 ) ) ;
#27 = CARTESIAN_POINT ( 'NONE',  ( -11.00000000000000000, 1.347111479062088207E-15, 0.000000000000000000 ) ) ;
#28 = EDGE_LOOP ( 'NONE', ( #37, #169, #43, #58 ) ) ;
#29 = COORDINATED_UNIVERSAL_TIME_OFFSET ( 1, 0, .AHEAD. ) ;
#30 = CARTESIAN_POINT ( 'NONE',  ( 0.000000000000000000, 0.000000000000000000, 0.000000000000000000 ) ) ;
#31 = VERTEX_POINT ( 'NONE', #56 ) ;
#32 = ORIENTED_EDGE ( 'NONE', *, *, #247, .T. ) ;
#33 = EDGE_LOOP ( 'NONE', ( #51, #263, #127, #274 ) ) ;
#34 = DIRECTION ( 'NONE',  ( -1.000000000000000000, 0.000000000000000000, 0.000000000000000000 ) ) ;
#35 = LINE ( 'NONE', #42, #199 ) ;
#36 = DIRECTION ( 'NONE',  ( 0.000000000000000000, 0.000000000000000000, 1.000000000000000000 ) ) ;
#37 = ORIENTED_EDGE ( 'NONE', *, *, #57, .F. ) ;
#38 = AXIS2_PLACEMENT_3D ( 'NONE', #319, #36, #100 ) ;
#39 = LOCAL_TIME ( 8, 16, 35.00000000000000000, #29 ) ;
#40 = DIRECTION ( 'NONE',  ( -0.000000000000000000, -0.000000000000000000, -1.000000000000000000 ) ) ;
#41 = EDGE_LOOP ( 'NONE', ( #6, #296 ) ) ;
#42 = CARTESIAN_POINT ( 'NONE',  ( -7.500000000000000000, 9.184850993605147944E-16, -13.00099999999999945 ) ) ;
#43 = ORIENTED_EDGE ( 'NONE', *, *, #52, .T. ) ;
#44 = CYLINDRICAL_SURFACE ( 'NONE', #260, 11.00000000000000000 ) ;
#45 = ORIENTED_EDGE ( 'NONE', *, *, #90, .F. ) ;
#46 = AXIS2_PLACEMENT_3D ( 'NONE', #110, #313, #266 ) ;
#47 = PERSON_AND_ORGANIZATION ( #171, #112 ) ;
#48 = EDGE_CURVE ( 'NONE', #113, #201, #158, .T. ) ;
#49 = PERSON_AND_ORGANIZATION ( #171, #112 ) ;
#50 = VECTOR ( 'NONE', #14, 1000.000000000000000 ) ;
#51 = ORIENTED_EDGE ( 'NONE', *, *, #85, .F. ) ;
#52 = EDGE_CURVE ( 'NONE', #101, #285, #165, .T. ) ;
#53 =( LENGTH_UNIT ( ) NAMED_UNIT ( * ) SI_UNIT ( .MILLI., .METRE. ) );
#54 = CARTESIAN_POINT ( 'NONE',  ( 11.00000000000000000, 0.000000000000000000, 0.000000000000000000 ) ) ;
#55 = FACE_BOUND ( 'NONE', #310, .T. ) ;
#56 = CARTESIAN_POINT ( 'NONE',  ( -11.00000000000000000, 1.347111479062088207E-15, -13.00000000000000000 ) ) ;
#57 = EDGE_CURVE ( 'NONE', #284, #281, #9, .T. ) ;
#58 = ORIENTED_EDGE ( 'NONE', *, *, #115, .F. ) ;
#59 = CARTESIAN_POINT ( 'NONE',  ( -7.500000000000000000, 9.184850993605147944E-16, 15.00000000000000000 ) ) ;
#60 = PRODUCT_DEFINITION_SHAPE ( 'NONE', 'NONE',  #109 ) ;
#61 = MANIFOLD_SOLID_BREP ( 'Extrusion3', #23 ) ;
#62 = ORIENTED_EDGE ( 'NONE', *, *, #298, .T. ) ;
#63 = DIRECTION ( 'NONE',  ( 1.000000000000000000, 0.000000000000000000, 0.000000000000000000 ) ) ;
#64 = ADVANCED_FACE ( 'NONE', ( #133, #307 ), #166, .F. ) ;
#65 = CARTESIAN_POINT ( 'NONE',  ( 0.000000000000000000, 0.000000000000000000, -13.00000000000000000 ) ) ;
#66 = LINE ( 'NONE', #168, #328 ) ;
#67 = PRODUCT ( 'R4-102', 'R4-102', '', ( #131 ) ) ;
#68 = CARTESIAN_POINT ( 'NONE',  ( -7.500000000000000000, 9.184850993605147944E-16, -13.00000000000000000 ) ) ;
#69 = EDGE_CURVE ( 'NONE', #31, #19, #185, .T. ) ;
#70 = VERTEX_POINT ( 'NONE', #287 ) ;
#71 = CC_DESIGN_APPROVAL ( #15, ( #215 ) ) ;
#72 = FACE_BOUND ( 'NONE', #264, .T. ) ;
#73 = FACE_OUTER_BOUND ( 'NONE', #28, .T. ) ;
#74 = DATE_AND_TIME ( #181, #258 ) ;
#75 = ORIENTED_EDGE ( 'NONE', *, *, #221, .F. ) ;
#76 = PERSON_AND_ORGANIZATION ( #171, #112 ) ;
#77 = ADVANCED_FACE ( 'NONE', ( #55, #91 ), #2, .T. ) ;
#78 = APPROVAL_STATUS ( 'not_yet_approved' ) ;
#79 = ADVANCED_FACE ( 'NONE', ( #308 ), #216, .T. ) ;
#80 = AXIS2_PLACEMENT_3D ( 'NONE', #136, #213, #241 ) ;
#81 = APPROVAL_STATUS ( 'not_yet_approved' ) ;
#82 = AXIS2_PLACEMENT_3D ( 'NONE', #195, #170, #140 ) ;
#83 = VERTEX_POINT ( 'NONE', #248 ) ;
#84 = DIRECTION ( 'NONE',  ( -0.000000000000000000, -0.000000000000000000, 1.000000000000000000 ) ) ;
#85 = EDGE_CURVE ( 'NONE', #201, #113, #141, .T. ) ;
#86 = ORIENTED_EDGE ( 'NONE', *, *, #239, .F. ) ;
#87 = CALENDAR_DATE ( 2022, 1, 7 ) ;
#88 = CARTESIAN_POINT ( 'NONE',  ( 0.000000000000000000, 0.000000000000000000, -13.00000000000000000 ) ) ;
#89 = DIRECTION ( 'NONE',  ( 1.000000000000000000, 0.000000000000000000, 0.000000000000000000 ) ) ;
#90 = EDGE_CURVE ( 'NONE', #92, #19, #159, .T. ) ;
#91 = FACE_OUTER_BOUND ( 'NONE', #103, .T. ) ;
#92 = VERTEX_POINT ( 'NONE', #54 ) ;
#93 = ORIENTED_EDGE ( 'NONE', *, *, #57, .T. ) ;
#94 = UNCERTAINTY_MEASURE_WITH_UNIT (LENGTH_MEASURE( 1.000000000000000082E-05 ), #53, 'distance_accuracy_value', 'NONE');
#95 = DIRECTION ( 'NONE',  ( -0.000000000000000000, -0.000000000000000000, -1.000000000000000000 ) ) ;
#96 = CARTESIAN_POINT ( 'NONE',  ( 7.500000000000000000, 0.000000000000000000, -13.00000000000000000 ) ) ;
#97 = ADVANCED_BREP_SHAPE_REPRESENTATION ( 'R4-102', ( #61, #257 ), #137 ) ;
#98 = DIRECTION ( 'NONE',  ( -0.000000000000000000, -0.000000000000000000, 1.000000000000000000 ) ) ;
#99 = CARTESIAN_POINT ( 'NONE',  ( 12.50000000000000000, 1.530808498934191521E-15, 15.00000000000000000 ) ) ;
#100 = DIRECTION ( 'NONE',  ( 1.000000000000000000, 0.000000000000000000, -0.000000000000000000 ) ) ;
#101 = VERTEX_POINT ( 'NONE', #59 ) ;
#102 = PERSON_AND_ORGANIZATION ( #171, #112 ) ;
#103 = EDGE_LOOP ( 'NONE', ( #21, #32 ) ) ;
#104 = CC_DESIGN_APPROVAL ( #292, ( #109 ) ) ;
#105 = PERSON_AND_ORGANIZATION_ROLE ( 'creator' ) ;
#106 = APPLICATION_PROTOCOL_DEFINITION ( 'international standard', 'config_control_design', 1994, #197 ) ;
#107 = SHAPE_DEFINITION_REPRESENTATION ( #60, #97 ) ;
#108 = VERTEX_POINT ( 'NONE', #290 ) ;
#109 = PRODUCT_DEFINITION ( 'UNKNOWN', '', #215, #315 ) ;
#110 = CARTESIAN_POINT ( 'NONE',  ( 0.000000000000000000, 0.000000000000000000, -13.00000000000000000 ) ) ;
#111 = DIRECTION ( 'NONE',  ( -1.000000000000000000, 0.000000000000000000, -0.000000000000000000 ) ) ;
#112 = ORGANIZATION ( 'UNSPECIFIED', 'UNSPECIFIED', '' ) ;
#113 = VERTEX_POINT ( 'NONE', #252 ) ;
#114 = ORIENTED_EDGE ( 'NONE', *, *, #22, .F. ) ;
#115 = EDGE_CURVE ( 'NONE', #281, #285, #8, .T. ) ;
#116 = ORIENTED_EDGE ( 'NONE', *, *, #69, .F. ) ;
#117 = CARTESIAN_POINT ( 'NONE',  ( 0.000000000000000000, 0.000000000000000000, 0.000000000000000000 ) ) ;
#118 = DIRECTION ( 'NONE',  ( 0.000000000000000000, 0.000000000000000000, -1.000000000000000000 ) ) ;
#119 = AXIS2_PLACEMENT_3D ( 'NONE', #17, #124, #145 ) ;
#120 = AXIS2_PLACEMENT_3D ( 'NONE', #167, #118, #317 ) ;
#121 = DIRECTION ( 'NONE',  ( -0.000000000000000000, -0.000000000000000000, -1.000000000000000000 ) ) ;
#122 = CARTESIAN_POINT ( 'NONE',  ( 0.000000000000000000, 0.000000000000000000, -13.00000000000000000 ) ) ;
#123 = PLANE ( 'NONE',  #38 ) ;
#124 = DIRECTION ( 'NONE',  ( 0.000000000000000000, 0.000000000000000000, 1.000000000000000000 ) ) ;
#125 = ORIENTED_EDGE ( 'NONE', *, *, #52, .F. ) ;
#126 = COORDINATED_UNIVERSAL_TIME_OFFSET ( 1, 0, .AHEAD. ) ;
#127 = ORIENTED_EDGE ( 'NONE', *, *, #128, .T. ) ;
#128 = EDGE_CURVE ( 'NONE', #83, #70, #278, .T. ) ;
#129 = CALENDAR_DATE ( 2022, 1, 7 ) ;
#130 = COORDINATED_UNIVERSAL_TIME_OFFSET ( 1, 0, .AHEAD. ) ;
#131 = MECHANICAL_CONTEXT ( 'NONE', #197, 'mechanical' ) ;
#132 = AXIS2_PLACEMENT_3D ( 'NONE', #212, #283, #218 ) ;
#133 = FACE_OUTER_BOUND ( 'NONE', #41, .T. ) ;
#134 = DIRECTION ( 'NONE',  ( 1.000000000000000000, 0.000000000000000000, -0.000000000000000000 ) ) ;
#135 = ADVANCED_FACE ( 'NONE', ( #73 ), #318, .F. ) ;
#136 = CARTESIAN_POINT ( 'NONE',  ( 0.000000000000000000, 0.000000000000000000, -13.00000000000000000 ) ) ;
#137 =( GEOMETRIC_REPRESENTATION_CONTEXT ( 3 ) GLOBAL_UNCERTAINTY_ASSIGNED_CONTEXT ( ( #94 ) ) GLOBAL_UNIT_ASSIGNED_CONTEXT ( ( #53, #204, #155 ) ) REPRESENTATION_CONTEXT ( 'NONE', 'WORKASPACE' ) );
#138 = DIRECTION ( 'NONE',  ( -0.000000000000000000, -0.000000000000000000, -1.000000000000000000 ) ) ;
#139 = DIRECTION ( 'NONE',  ( 0.000000000000000000, 0.000000000000000000, 1.000000000000000000 ) ) ;
#140 = DIRECTION ( 'NONE',  ( 1.000000000000000000, 0.000000000000000000, 0.000000000000000000 ) ) ;
#141 = CIRCLE ( 'NONE', #326, 12.50000000000000000 ) ;
#142 = CC_DESIGN_APPROVAL ( #156, ( #10 ) ) ;
#143 = CC_DESIGN_PERSON_AND_ORGANIZATION_ASSIGNMENT ( #151, #20, ( #215 ) ) ;
#144 = ORIENTED_EDGE ( 'NONE', *, *, #329, .F. ) ;
#145 = DIRECTION ( 'NONE',  ( 1.000000000000000000, 0.000000000000000000, 0.000000000000000000 ) ) ;
#146 = ORIENTED_EDGE ( 'NONE', *, *, #148, .T. ) ;
#147 = DIRECTION ( 'NONE',  ( 0.000000000000000000, 0.000000000000000000, -1.000000000000000000 ) ) ;
#148 = EDGE_CURVE ( 'NONE', #19, #92, #288, .T. ) ;
#149 = DIRECTION ( 'NONE',  ( -0.000000000000000000, -0.000000000000000000, 1.000000000000000000 ) ) ;
#150 = VECTOR ( 'NONE', #40, 1000.000000000000000 ) ;
#151 = PERSON_AND_ORGANIZATION ( #171, #112 ) ;
#152 = APPROVAL_ROLE ( '' ) ;
#153 = VECTOR ( 'NONE', #224, 1000.000000000000000 ) ;
#154 = DATE_TIME_ROLE ( 'creation_date' ) ;
#155 =( NAMED_UNIT ( * ) SI_UNIT ( $, .STERADIAN. ) SOLID_ANGLE_UNIT ( ) );
#156 = APPROVAL ( #78, 'UNSPECIFIED' ) ;
#157 = DIRECTION ( 'NONE',  ( 0.000000000000000000, 0.000000000000000000, 1.000000000000000000 ) ) ;
#158 = CIRCLE ( 'NONE', #265, 12.50000000000000000 ) ;
#159 = CIRCLE ( 'NONE', #205, 11.00000000000000000 ) ;
#160 = LOCAL_TIME ( 8, 16, 35.00000000000000000, #126 ) ;
#161 = CARTESIAN_POINT ( 'NONE',  ( 0.000000000000000000, 0.000000000000000000, 15.00000000000000000 ) ) ;
#162 = ORIENTED_EDGE ( 'NONE', *, *, #175, .T. ) ;
#163 = FACE_OUTER_BOUND ( 'NONE', #188, .T. ) ;
#164 = ORIENTED_EDGE ( 'NONE', *, *, #175, .F. ) ;
#165 = CIRCLE ( 'NONE', #193, 7.500000000000000000 ) ;
#166 = PLANE ( 'NONE',  #177 ) ;
#167 = CARTESIAN_POINT ( 'NONE',  ( 0.000000000000000000, 0.000000000000000000, -13.00000000000000000 ) ) ;
#168 = CARTESIAN_POINT ( 'NONE',  ( 11.00000000000000000, 0.000000000000000000, -13.00000000000000000 ) ) ;
#169 = ORIENTED_EDGE ( 'NONE', *, *, #239, .T. ) ;
#170 = DIRECTION ( 'NONE',  ( 0.000000000000000000, 0.000000000000000000, 1.000000000000000000 ) ) ;
#171 = PERSON ( 'UNSPECIFIED', 'UNSPECIFIED', 'UNSPECIFIED', ('UNSPECIFIED'), ('UNSPECIFIED'), ('UNSPECIFIED') ) ;
#172 = APPROVAL_PERSON_ORGANIZATION ( #208, #15, #152 ) ;
#173 = FACE_OUTER_BOUND ( 'NONE', #219, .T. ) ;
#174 = EDGE_LOOP ( 'NONE', ( #45, #180 ) ) ;
#175 = EDGE_CURVE ( 'NONE', #108, #92, #66, .T. ) ;
#176 = FACE_OUTER_BOUND ( 'NONE', #282, .T. ) ;
#177 = AXIS2_PLACEMENT_3D ( 'NONE', #30, #192, #134 ) ;
#178 = AXIS2_PLACEMENT_3D ( 'NONE', #65, #98, #251 ) ;
#179 = APPROVAL_DATE_TIME ( #184, #15 ) ;
#180 = ORIENTED_EDGE ( 'NONE', *, *, #148, .F. ) ;
#181 = CALENDAR_DATE ( 2022, 1, 7 ) ;
#182 = CC_DESIGN_DATE_AND_TIME_ASSIGNMENT ( #74, #154, ( #109 ) ) ;
#183 = APPROVAL_ROLE ( '' ) ;
#184 = DATE_AND_TIME ( #303, #160 ) ;
#185 = LINE ( 'NONE', #243, #256 ) ;
#186 = AXIS2_PLACEMENT_3D ( 'NONE', #11, #121, #272 ) ;
#187 = APPROVAL_PERSON_ORGANIZATION ( #304, #156, #183 ) ;
#188 = EDGE_LOOP ( 'NONE', ( #86, #114, #255, #227 ) ) ;
#189 = ADVANCED_FACE ( 'NONE', ( #72, #173 ), #123, .T. ) ;
#190 = APPROVAL_DATE_TIME ( #217, #156 ) ;
#191 = DIRECTION ( 'NONE',  ( -0.000000000000000000, -0.000000000000000000, -1.000000000000000000 ) ) ;
#192 = DIRECTION ( 'NONE',  ( 0.000000000000000000, 0.000000000000000000, 1.000000000000000000 ) ) ;
#193 = AXIS2_PLACEMENT_3D ( 'NONE', #161, #245, #89 ) ;
#194 = DIRECTION ( 'NONE',  ( 1.000000000000000000, 0.000000000000000000, 0.000000000000000000 ) ) ;
#195 = CARTESIAN_POINT ( 'NONE',  ( 0.000000000000000000, 0.000000000000000000, 0.000000000000000000 ) ) ;
#196 = DIRECTION ( 'NONE',  ( -0.000000000000000000, -0.000000000000000000, 1.000000000000000000 ) ) ;
#197 = APPLICATION_CONTEXT ( 'configuration controlled 3d designs of mechanical parts and assemblies' ) ;
#198 = DIRECTION ( 'NONE',  ( 1.000000000000000000, 0.000000000000000000, 0.000000000000000000 ) ) ;
#199 = VECTOR ( 'NONE', #291, 1000.000000000000000 ) ;
#200 = ADVANCED_FACE ( 'NONE', ( #267 ), #232, .T. ) ;
#201 = VERTEX_POINT ( 'NONE', #226 ) ;
#202 = DIRECTION ( 'NONE',  ( -1.000000000000000000, 0.000000000000000000, 0.000000000000000000 ) ) ;
#203 = APPROVAL_DATE_TIME ( #240, #292 ) ;
#204 =( NAMED_UNIT ( * ) PLANE_ANGLE_UNIT ( ) SI_UNIT ( $, .RADIAN. ) );
#205 = AXIS2_PLACEMENT_3D ( 'NONE', #117, #191, #194 ) ;
#206 = AXIS2_PLACEMENT_3D ( 'NONE', #268, #149, #198 ) ;
#207 = LOCAL_TIME ( 8, 16, 35.00000000000000000, #130 ) ;
#208 = PERSON_AND_ORGANIZATION ( #171, #112 ) ;
#209 = ADVANCED_FACE ( 'NONE', ( #228 ), #44, .T. ) ;
#210 = APPROVAL_ROLE ( '' ) ;
#211 = DIRECTION ( 'NONE',  ( 1.000000000000000000, 0.000000000000000000, 0.000000000000000000 ) ) ;
#212 = CARTESIAN_POINT ( 'NONE',  ( 0.000000000000000000, 0.000000000000000000, -13.00099999999999945 ) ) ;
#213 = DIRECTION ( 'NONE',  ( -0.000000000000000000, -0.000000000000000000, 1.000000000000000000 ) ) ;
#214 = ORIENTED_EDGE ( 'NONE', *, *, #48, .F. ) ;
#215 = PRODUCT_DEFINITION_FORMATION_WITH_SPECIFIED_SOURCE ( 'ANY', '', #67, .NOT_KNOWN. ) ;
#216 = CYLINDRICAL_SURFACE ( 'NONE', #301, 12.50000000000000000 ) ;
#217 = DATE_AND_TIME ( #87, #39 ) ;
#218 = DIRECTION ( 'NONE',  ( 1.000000000000000000, 0.000000000000000000, 0.000000000000000000 ) ) ;
#219 = EDGE_LOOP ( 'NONE', ( #220, #306 ) ) ;
#220 = ORIENTED_EDGE ( 'NONE', *, *, #48, .T. ) ;
#221 = EDGE_CURVE ( 'NONE', #108, #31, #225, .T. ) ;
#222 = ORIENTED_EDGE ( 'NONE', *, *, #247, .F. ) ;
#223 = AXIS2_PLACEMENT_3D ( 'NONE', #88, #4, #111 ) ;
#224 = DIRECTION ( 'NONE',  ( -0.000000000000000000, -0.000000000000000000, -1.000000000000000000 ) ) ;
#225 = CIRCLE ( 'NONE', #120, 11.00000000000000000 ) ;
#226 = CARTESIAN_POINT ( 'NONE',  ( 12.50000000000000000, 1.530808498934191521E-15, 15.00000000000000000 ) ) ;
#227 = ORIENTED_EDGE ( 'NONE', *, *, #329, .T. ) ;
#228 = FACE_OUTER_BOUND ( 'NONE', #246, .T. ) ;
#229 = PRODUCT_RELATED_PRODUCT_CATEGORY ( 'detail', '', ( #67 ) ) ;
#230 = EDGE_LOOP ( 'NONE', ( #222, #242, #146, #164 ) ) ;
#231 = CARTESIAN_POINT ( 'NONE',  ( 7.500000000000000000, 0.000000000000000000, -13.00099999999999945 ) ) ;
#232 = CYLINDRICAL_SURFACE ( 'NONE', #178, 11.00000000000000000 ) ;
#233 = PERSON_AND_ORGANIZATION_ROLE ( 'design_owner' ) ;
#234 = EDGE_CURVE ( 'NONE', #201, #83, #254, .T. ) ;
#235 = APPLICATION_PROTOCOL_DEFINITION ( 'international standard', 'config_control_design', 1994, #321 ) ;
#236 = CC_DESIGN_SECURITY_CLASSIFICATION ( #10, ( #215 ) ) ;
#237 = DATE_TIME_ROLE ( 'classification_date' ) ;
#238 = DATE_AND_TIME ( #129, #207 ) ;
#239 = EDGE_CURVE ( 'NONE', #284, #101, #35, .T. ) ;
#240 = DATE_AND_TIME ( #277, #295 ) ;
#241 = DIRECTION ( 'NONE',  ( -1.000000000000000000, 0.000000000000000000, 0.000000000000000000 ) ) ;
#242 = ORIENTED_EDGE ( 'NONE', *, *, #69, .T. ) ;
#243 = CARTESIAN_POINT ( 'NONE',  ( -11.00000000000000000, 1.347111479062088207E-15, -13.00000000000000000 ) ) ;
#244 = CYLINDRICAL_SURFACE ( 'NONE', #132, 7.500000000000000000 ) ;
#245 = DIRECTION ( 'NONE',  ( 0.000000000000000000, 0.000000000000000000, 1.000000000000000000 ) ) ;
#246 = EDGE_LOOP ( 'NONE', ( #116, #75, #162, #324 ) ) ;
#247 = EDGE_CURVE ( 'NONE', #31, #108, #302, .T. ) ;
#248 = CARTESIAN_POINT ( 'NONE',  ( 12.50000000000000000, 1.530808498934191521E-15, 0.000000000000000000 ) ) ;
#249 = CC_DESIGN_PERSON_AND_ORGANIZATION_ASSIGNMENT ( #299, #275, ( #109 ) ) ;
#250 = CYLINDRICAL_SURFACE ( 'NONE', #186, 12.50000000000000000 ) ;
#251 = DIRECTION ( 'NONE',  ( 1.000000000000000000, 0.000000000000000000, 0.000000000000000000 ) ) ;
#252 = CARTESIAN_POINT ( 'NONE',  ( -12.50000000000000000, 0.000000000000000000, 15.00000000000000000 ) ) ;
#253 = CARTESIAN_POINT ( 'NONE',  ( 7.500000000000000000, 0.000000000000000000, 15.00000000000000000 ) ) ;
#254 = LINE ( 'NONE', #99, #153 ) ;
#255 = ORIENTED_EDGE ( 'NONE', *, *, #115, .T. ) ;
#256 = VECTOR ( 'NONE', #84, 1000.000000000000000 ) ;
#257 = AXIS2_PLACEMENT_3D ( 'NONE', #26, #25, #211 ) ;
#258 = LOCAL_TIME ( 8, 16, 35.00000000000000000, #305 ) ;
#259 = DIRECTION ( 'NONE',  ( 1.000000000000000000, 0.000000000000000000, 0.000000000000000000 ) ) ;
#260 = AXIS2_PLACEMENT_3D ( 'NONE', #122, #289, #271 ) ;
#261 = ORIENTED_EDGE ( 'NONE', *, *, #316, .T. ) ;
#262 = ADVANCED_FACE ( 'NONE', ( #176 ), #250, .T. ) ;
#263 = ORIENTED_EDGE ( 'NONE', *, *, #234, .T. ) ;
#264 = EDGE_LOOP ( 'NONE', ( #144, #125 ) ) ;
#265 = AXIS2_PLACEMENT_3D ( 'NONE', #1, #312, #63 ) ;
#266 = DIRECTION ( 'NONE',  ( -1.000000000000000000, 0.000000000000000000, 0.000000000000000000 ) ) ;
#267 = FACE_OUTER_BOUND ( 'NONE', #230, .T. ) ;
#268 = CARTESIAN_POINT ( 'NONE',  ( 0.000000000000000000, 0.000000000000000000, -13.00099999999999945 ) ) ;
#269 = AXIS2_PLACEMENT_3D ( 'NONE', #294, #95, #13 ) ;
#270 = CARTESIAN_POINT ( 'NONE',  ( -12.50000000000000000, 0.000000000000000000, 15.00000000000000000 ) ) ;
#271 = DIRECTION ( 'NONE',  ( 1.000000000000000000, 0.000000000000000000, 0.000000000000000000 ) ) ;
#272 = DIRECTION ( 'NONE',  ( -1.000000000000000000, 0.000000000000000000, 0.000000000000000000 ) ) ;
#273 = CIRCLE ( 'NONE', #16, 7.500000000000000000 ) ;
#274 = ORIENTED_EDGE ( 'NONE', *, *, #316, .F. ) ;
#275 = PERSON_AND_ORGANIZATION_ROLE ( 'creator' ) ;
#276 = CC_DESIGN_PERSON_AND_ORGANIZATION_ASSIGNMENT ( #102, #233, ( #67 ) ) ;
#277 = CALENDAR_DATE ( 2022, 1, 7 ) ;
#278 = CIRCLE ( 'NONE', #82, 12.50000000000000000 ) ;
#279 = AXIS2_PLACEMENT_3D ( 'NONE', #297, #147, #202 ) ;
#280 = DIRECTION ( 'NONE',  ( 1.000000000000000000, 0.000000000000000000, 0.000000000000000000 ) ) ;
#281 = VERTEX_POINT ( 'NONE', #96 ) ;
#282 = EDGE_LOOP ( 'NONE', ( #322, #214, #261, #62 ) ) ;
#283 = DIRECTION ( 'NONE',  ( -0.000000000000000000, -0.000000000000000000, 1.000000000000000000 ) ) ;
#284 = VERTEX_POINT ( 'NONE', #68 ) ;
#285 = VERTEX_POINT ( 'NONE', #253 ) ;
#286 = CC_DESIGN_DATE_AND_TIME_ASSIGNMENT ( #238, #237, ( #10 ) ) ;
#287 = CARTESIAN_POINT ( 'NONE',  ( -12.50000000000000000, 0.000000000000000000, 0.000000000000000000 ) ) ;
#288 = CIRCLE ( 'NONE', #269, 11.00000000000000000 ) ;
#289 = DIRECTION ( 'NONE',  ( -0.000000000000000000, -0.000000000000000000, 1.000000000000000000 ) ) ;
#290 = CARTESIAN_POINT ( 'NONE',  ( 11.00000000000000000, 0.000000000000000000, -13.00000000000000000 ) ) ;
#291 = DIRECTION ( 'NONE',  ( -0.000000000000000000, -0.000000000000000000, 1.000000000000000000 ) ) ;
#292 = APPROVAL ( #327, 'UNSPECIFIED' ) ;
#293 = APPROVAL_PERSON_ORGANIZATION ( #76, #292, #210 ) ;
#294 = CARTESIAN_POINT ( 'NONE',  ( 0.000000000000000000, 0.000000000000000000, 0.000000000000000000 ) ) ;
#295 = LOCAL_TIME ( 8, 16, 35.00000000000000000, #18 ) ;
#296 = ORIENTED_EDGE ( 'NONE', *, *, #128, .F. ) ;
#297 = CARTESIAN_POINT ( 'NONE',  ( 0.000000000000000000, 0.000000000000000000, -13.00000000000000000 ) ) ;
#298 = EDGE_CURVE ( 'NONE', #70, #83, #309, .T. ) ;
#299 = PERSON_AND_ORGANIZATION ( #171, #112 ) ;
#300 = CIRCLE ( 'NONE', #80, 7.500000000000000000 ) ;
#301 = AXIS2_PLACEMENT_3D ( 'NONE', #5, #138, #34 ) ;
#302 = CIRCLE ( 'NONE', #279, 11.00000000000000000 ) ;
#303 = CALENDAR_DATE ( 2022, 1, 7 ) ;
#304 = PERSON_AND_ORGANIZATION ( #171, #112 ) ;
#305 = COORDINATED_UNIVERSAL_TIME_OFFSET ( 1, 0, .AHEAD. ) ;
#306 = ORIENTED_EDGE ( 'NONE', *, *, #85, .T. ) ;
#307 = FACE_BOUND ( 'NONE', #174, .T. ) ;
#308 = FACE_OUTER_BOUND ( 'NONE', #33, .T. ) ;
#309 = CIRCLE ( 'NONE', #119, 12.50000000000000000 ) ;
#310 = EDGE_LOOP ( 'NONE', ( #12, #93 ) ) ;
#311 = CC_DESIGN_PERSON_AND_ORGANIZATION_ASSIGNMENT ( #49, #24, ( #10 ) ) ;
#312 = DIRECTION ( 'NONE',  ( 0.000000000000000000, 0.000000000000000000, 1.000000000000000000 ) ) ;
#313 = DIRECTION ( 'NONE',  ( -0.000000000000000000, -0.000000000000000000, 1.000000000000000000 ) ) ;
#314 = CARTESIAN_POINT ( 'NONE',  ( 0.000000000000000000, 0.000000000000000000, 15.00000000000000000 ) ) ;
#315 = DESIGN_CONTEXT ( 'detailed design', #321, 'design' ) ;
#316 = EDGE_CURVE ( 'NONE', #113, #70, #323, .T. ) ;
#317 = DIRECTION ( 'NONE',  ( -1.000000000000000000, 0.000000000000000000, 0.000000000000000000 ) ) ;
#318 = CYLINDRICAL_SURFACE ( 'NONE', #206, 7.500000000000000000 ) ;
#319 = CARTESIAN_POINT ( 'NONE',  ( 0.000000000000000000, 0.000000000000000000, 15.00000000000000000 ) ) ;
#320 = CC_DESIGN_PERSON_AND_ORGANIZATION_ASSIGNMENT ( #47, #105, ( #215 ) ) ;
#321 = APPLICATION_CONTEXT ( 'configuration controlled 3d designs of mechanical parts and assemblies' ) ;
#322 = ORIENTED_EDGE ( 'NONE', *, *, #234, .F. ) ;
#323 = LINE ( 'NONE', #270, #150 ) ;
#324 = ORIENTED_EDGE ( 'NONE', *, *, #90, .T. ) ;
#325 = SECURITY_CLASSIFICATION_LEVEL ( 'unclassified' ) ;
#326 = AXIS2_PLACEMENT_3D ( 'NONE', #7, #157, #259 ) ;
#327 = APPROVAL_STATUS ( 'not_yet_approved' ) ;
#328 = VECTOR ( 'NONE', #196, 1000.000000000000000 ) ;
#329 = EDGE_CURVE ( 'NONE', #285, #101, #273, .T. ) ;
ENDSEC;
END-ISO-10303-21;
