ISO-10303-21;
HEADER;
FILE_DESCRIPTION (( 'STEP AP203' ),
    '1' );
FILE_NAME ('R4-106.STEP',
    '2022-07-01T06:18:59',
    ( '' ),
    ( '' ),
    'SwSTEP 2.0',
    'SolidWorks 2022',
    '' );
FILE_SCHEMA (( 'CONFIG_CONTROL_DESIGN' ));
ENDSEC;

DATA;
#1 = PRODUCT_DEFINITION ( 'UNKNOWN', '', #151, #195 ) ;
#2 = CARTESIAN_POINT ( 'NONE',  ( 0.000000000000000000, 0.000000000000000000, -28.00000000000000000 ) ) ;
#3 = AXIS2_PLACEMENT_3D ( 'NONE', #202, #302, #271 ) ;
#4 = CARTESIAN_POINT ( 'NONE',  ( 0.000000000000000000, 0.000000000000000000, -28.00000000000000000 ) ) ;
#5 = ADVANCED_FACE ( 'NONE', ( #43 ), #299, .T. ) ;
#6 = FACE_OUTER_BOUND ( 'NONE', #63, .T. ) ;
#7 = CARTESIAN_POINT ( 'NONE',  ( 27.50000000000000000, 3.367778697655221307E-15, 0.000000000000000000 ) ) ;
#8 = APPROVAL_ROLE ( '' ) ;
#9 = APPROVAL ( #169, 'UNSPECIFIED' ) ;
#10 = LOCAL_TIME ( 8, 18, 59.00000000000000000, #292 ) ;
#11 =( NAMED_UNIT ( * ) SI_UNIT ( $, .STERADIAN. ) SOLID_ANGLE_UNIT ( ) );
#12 = ORIENTED_EDGE ( 'NONE', *, *, #273, .F. ) ;
#13 = APPLICATION_PROTOCOL_DEFINITION ( 'international standard', 'config_control_design', 1994, #45 ) ;
#14 = ORIENTED_EDGE ( 'NONE', *, *, #72, .T. ) ;
#15 = CALENDAR_DATE ( 2022, 1, 7 ) ;
#16 = ORIENTED_EDGE ( 'NONE', *, *, #273, .T. ) ;
#17 = PERSON_AND_ORGANIZATION ( #321, #123 ) ;
#18 = VERTEX_POINT ( 'NONE', #120 ) ;
#19 = LINE ( 'NONE', #116, #246 ) ;
#20 = DIRECTION ( 'NONE',  ( -0.000000000000000000, -0.000000000000000000, -1.000000000000000000 ) ) ;
#21 = EDGE_CURVE ( 'NONE', #34, #217, #33, .T. ) ;
#22 = APPROVAL_PERSON_ORGANIZATION ( #284, #298, #213 ) ;
#23 = MANIFOLD_SOLID_BREP ( 'Extrusion3', #103 ) ;
#24 = CYLINDRICAL_SURFACE ( 'NONE', #198, 27.50000000000000000 ) ;
#25 = AXIS2_PLACEMENT_3D ( 'NONE', #145, #249, #229 ) ;
#26 = CARTESIAN_POINT ( 'NONE',  ( 0.000000000000000000, 0.000000000000000000, -28.00100000000000122 ) ) ;
#27 = CARTESIAN_POINT ( 'NONE',  ( 0.000000000000000000, 0.000000000000000000, -28.00000000000000000 ) ) ;
#28 = DIRECTION ( 'NONE',  ( 0.000000000000000000, 0.000000000000000000, 1.000000000000000000 ) ) ;
#29 = ADVANCED_FACE ( 'NONE', ( #64, #65 ), #117, .F. ) ;
#30 = DIRECTION ( 'NONE',  ( 0.000000000000000000, 0.000000000000000000, 1.000000000000000000 ) ) ;
#31 = CARTESIAN_POINT ( 'NONE',  ( 0.000000000000000000, 0.000000000000000000, 20.00000000000000000 ) ) ;
#32 = DIRECTION ( 'NONE',  ( 0.000000000000000000, 0.000000000000000000, 1.000000000000000000 ) ) ;
#33 = CIRCLE ( 'NONE', #3, 27.50000000000000000 ) ;
#34 = VERTEX_POINT ( 'NONE', #93 ) ;
#35 = CC_DESIGN_PERSON_AND_ORGANIZATION_ASSIGNMENT ( #17, #262, ( #250 ) ) ;
#36 = PERSON_AND_ORGANIZATION_ROLE ( 'creator' ) ;
#37 = ORIENTED_EDGE ( 'NONE', *, *, #222, .F. ) ;
#38 = EDGE_CURVE ( 'NONE', #18, #139, #56, .T. ) ;
#39 = APPROVAL_ROLE ( '' ) ;
#40 = ORIENTED_EDGE ( 'NONE', *, *, #84, .F. ) ;
#41 = ORIENTED_EDGE ( 'NONE', *, *, #300, .F. ) ;
#42 = APPROVAL_PERSON_ORGANIZATION ( #317, #9, #39 ) ;
#43 = FACE_OUTER_BOUND ( 'NONE', #245, .T. ) ;
#44 = CC_DESIGN_PERSON_AND_ORGANIZATION_ASSIGNMENT ( #138, #243, ( #151 ) ) ;
#45 = APPLICATION_CONTEXT ( 'configuration controlled 3d designs of mechanical parts and assemblies' ) ;
#46 = CARTESIAN_POINT ( 'NONE',  ( 0.000000000000000000, 0.000000000000000000, 0.000000000000000000 ) ) ;
#47 = LINE ( 'NONE', #147, #261 ) ;
#48 = CARTESIAN_POINT ( 'NONE',  ( 0.000000000000000000, 0.000000000000000000, -28.00100000000000122 ) ) ;
#49 = CARTESIAN_POINT ( 'NONE',  ( 25.00000000000000000, 0.000000000000000000, -28.00000000000000000 ) ) ;
#50 = DIRECTION ( 'NONE',  ( -0.000000000000000000, -0.000000000000000000, 1.000000000000000000 ) ) ;
#51 = CYLINDRICAL_SURFACE ( 'NONE', #254, 19.50000000000000000 ) ;
#52 = EDGE_CURVE ( 'NONE', #177, #189, #269, .T. ) ;
#53 = FACE_BOUND ( 'NONE', #244, .T. ) ;
#54 = DIRECTION ( 'NONE',  ( -0.000000000000000000, -0.000000000000000000, 1.000000000000000000 ) ) ;
#55 = CARTESIAN_POINT ( 'NONE',  ( 0.000000000000000000, 0.000000000000000000, 20.00000000000000000 ) ) ;
#56 = CIRCLE ( 'NONE', #25, 25.00000000000000000 ) ;
#57 = DATE_AND_TIME ( #188, #10 ) ;
#58 = ORIENTED_EDGE ( 'NONE', *, *, #242, .T. ) ;
#59 = PERSON_AND_ORGANIZATION_ROLE ( 'design_owner' ) ;
#60 = CIRCLE ( 'NONE', #328, 25.00000000000000000 ) ;
#61 = EDGE_LOOP ( 'NONE', ( #16, #312 ) ) ;
#62 = EDGE_CURVE ( 'NONE', #217, #177, #47, .T. ) ;
#63 = EDGE_LOOP ( 'NONE', ( #41, #268, #112, #171 ) ) ;
#64 = FACE_OUTER_BOUND ( 'NONE', #137, .T. ) ;
#65 = FACE_BOUND ( 'NONE', #163, .T. ) ;
#66 = CIRCLE ( 'NONE', #160, 19.50000000000000000 ) ;
#67 = AXIS2_PLACEMENT_3D ( 'NONE', #287, #32, #266 ) ;
#68 = UNCERTAINTY_MEASURE_WITH_UNIT (LENGTH_MEASURE( 1.000000000000000082E-05 ), #205, 'distance_accuracy_value', 'NONE');
#69 = CARTESIAN_POINT ( 'NONE',  ( 19.50000000000000000, 0.000000000000000000, -28.00100000000000122 ) ) ;
#70 = DIRECTION ( 'NONE',  ( -1.000000000000000000, 0.000000000000000000, 0.000000000000000000 ) ) ;
#71 = FACE_OUTER_BOUND ( 'NONE', #110, .T. ) ;
#72 = EDGE_CURVE ( 'NONE', #81, #134, #126, .T. ) ;
#73 = AXIS2_PLACEMENT_3D ( 'NONE', #91, #200, #176 ) ;
#74 = DIRECTION ( 'NONE',  ( -0.000000000000000000, -0.000000000000000000, 1.000000000000000000 ) ) ;
#75 = DIRECTION ( 'NONE',  ( 1.000000000000000000, 0.000000000000000000, 0.000000000000000000 ) ) ;
#76 = FACE_BOUND ( 'NONE', #288, .T. ) ;
#77 = DIRECTION ( 'NONE',  ( -0.000000000000000000, -0.000000000000000000, 1.000000000000000000 ) ) ;
#78 = DATE_AND_TIME ( #259, #207 ) ;
#79 = ORIENTED_EDGE ( 'NONE', *, *, #174, .F. ) ;
#80 = ADVANCED_BREP_SHAPE_REPRESENTATION ( 'R4-106', ( #23, #67 ), #187 ) ;
#81 = VERTEX_POINT ( 'NONE', #236 ) ;
#82 = CALENDAR_DATE ( 2022, 1, 7 ) ;
#83 = ORIENTED_EDGE ( 'NONE', *, *, #62, .T. ) ;
#84 = EDGE_CURVE ( 'NONE', #144, #115, #121, .T. ) ;
#85 = AXIS2_PLACEMENT_3D ( 'NONE', #55, #211, #148 ) ;
#86 = DATE_TIME_ROLE ( 'creation_date' ) ;
#87 = ORIENTED_EDGE ( 'NONE', *, *, #183, .F. ) ;
#88 = COORDINATED_UNIVERSAL_TIME_OFFSET ( 1, 0, .AHEAD. ) ;
#89 = APPROVAL ( #265, 'UNSPECIFIED' ) ;
#90 = AXIS2_PLACEMENT_3D ( 'NONE', #154, #96, #204 ) ;
#91 = CARTESIAN_POINT ( 'NONE',  ( 0.000000000000000000, 0.000000000000000000, 0.000000000000000000 ) ) ;
#92 = ADVANCED_FACE ( 'NONE', ( #53, #256 ), #275, .T. ) ;
#93 = CARTESIAN_POINT ( 'NONE',  ( 27.50000000000000000, 3.367778697655221307E-15, 20.00000000000000000 ) ) ;
#94 = VECTOR ( 'NONE', #77, 1000.000000000000000 ) ;
#95 = CARTESIAN_POINT ( 'NONE',  ( 25.00000000000000000, 0.000000000000000000, -28.00000000000000000 ) ) ;
#96 = DIRECTION ( 'NONE',  ( 0.000000000000000000, 0.000000000000000000, -1.000000000000000000 ) ) ;
#97 = FACE_OUTER_BOUND ( 'NONE', #248, .T. ) ;
#98 = AXIS2_PLACEMENT_3D ( 'NONE', #2, #238, #100 ) ;
#99 = CARTESIAN_POINT ( 'NONE',  ( 0.000000000000000000, 0.000000000000000000, 0.000000000000000000 ) ) ;
#100 = DIRECTION ( 'NONE',  ( 1.000000000000000000, 0.000000000000000000, 0.000000000000000000 ) ) ;
#101 = CYLINDRICAL_SURFACE ( 'NONE', #98, 25.00000000000000000 ) ;
#102 = ORIENTED_EDGE ( 'NONE', *, *, #242, .F. ) ;
#103 = CLOSED_SHELL ( 'NONE', ( #289, #136, #309, #29, #5, #208, #264, #92, #199 ) ) ;
#104 = CC_DESIGN_APPROVAL ( #298, ( #1 ) ) ;
#105 = CC_DESIGN_DATE_AND_TIME_ASSIGNMENT ( #164, #86, ( #1 ) ) ;
#106 = COORDINATED_UNIVERSAL_TIME_OFFSET ( 1, 0, .AHEAD. ) ;
#107 = ORIENTED_EDGE ( 'NONE', *, *, #72, .F. ) ;
#108 = CC_DESIGN_PERSON_AND_ORGANIZATION_ASSIGNMENT ( #285, #59, ( #157 ) ) ;
#109 = PERSON_AND_ORGANIZATION ( #321, #123 ) ;
#110 = EDGE_LOOP ( 'NONE', ( #40, #293, #301, #79 ) ) ;
#111 = DATE_TIME_ROLE ( 'classification_date' ) ;
#112 = ORIENTED_EDGE ( 'NONE', *, *, #174, .T. ) ;
#113 = AXIS2_PLACEMENT_3D ( 'NONE', #4, #303, #178 ) ;
#114 = CALENDAR_DATE ( 2022, 1, 7 ) ;
#115 = VERTEX_POINT ( 'NONE', #49 ) ;
#116 = CARTESIAN_POINT ( 'NONE',  ( -19.50000000000000000, 2.388061258337338939E-15, -28.00100000000000122 ) ) ;
#117 = PLANE ( 'NONE',  #305 ) ;
#118 = CIRCLE ( 'NONE', #128, 27.50000000000000000 ) ;
#119 = EDGE_CURVE ( 'NONE', #139, #18, #311, .T. ) ;
#120 = CARTESIAN_POINT ( 'NONE',  ( -25.00000000000000000, 3.061616997868383043E-15, 0.000000000000000000 ) ) ;
#121 = CIRCLE ( 'NONE', #113, 25.00000000000000000 ) ;
#122 = DIRECTION ( 'NONE',  ( 1.000000000000000000, 0.000000000000000000, -0.000000000000000000 ) ) ;
#123 = ORGANIZATION ( 'UNSPECIFIED', 'UNSPECIFIED', '' ) ;
#124 = CARTESIAN_POINT ( 'NONE',  ( 0.000000000000000000, 0.000000000000000000, 20.00000000000000000 ) ) ;
#125 = CARTESIAN_POINT ( 'NONE',  ( -27.50000000000000000, 0.000000000000000000, 20.00000000000000000 ) ) ;
#126 = LINE ( 'NONE', #69, #272 ) ;
#127 = CARTESIAN_POINT ( 'NONE',  ( 0.000000000000000000, 0.000000000000000000, 20.00000000000000000 ) ) ;
#128 = AXIS2_PLACEMENT_3D ( 'NONE', #131, #197, #227 ) ;
#129 = CARTESIAN_POINT ( 'NONE',  ( 0.000000000000000000, 0.000000000000000000, 20.00000000000000000 ) ) ;
#130 = PRODUCT_DEFINITION_SHAPE ( 'NONE', 'NONE',  #1 ) ;
#131 = CARTESIAN_POINT ( 'NONE',  ( 0.000000000000000000, 0.000000000000000000, 0.000000000000000000 ) ) ;
#132 = MECHANICAL_CONTEXT ( 'NONE', #45, 'mechanical' ) ;
#133 = PERSON_AND_ORGANIZATION_ROLE ( 'creator' ) ;
#134 = VERTEX_POINT ( 'NONE', #281 ) ;
#135 = CIRCLE ( 'NONE', #85, 27.50000000000000000 ) ;
#136 = ADVANCED_FACE ( 'NONE', ( #71 ), #180, .T. ) ;
#137 = EDGE_LOOP ( 'NONE', ( #263, #320 ) ) ;
#138 = PERSON_AND_ORGANIZATION ( #321, #123 ) ;
#139 = VERTEX_POINT ( 'NONE', #306 ) ;
#140 = CC_DESIGN_DATE_AND_TIME_ASSIGNMENT ( #220, #111, ( #250 ) ) ;
#141 = SECURITY_CLASSIFICATION_LEVEL ( 'unclassified' ) ;
#142 = ORIENTED_EDGE ( 'NONE', *, *, #158, .F. ) ;
#143 = VECTOR ( 'NONE', #182, 1000.000000000000000 ) ;
#144 = VERTEX_POINT ( 'NONE', #224 ) ;
#145 = CARTESIAN_POINT ( 'NONE',  ( 0.000000000000000000, 0.000000000000000000, 0.000000000000000000 ) ) ;
#146 = EDGE_CURVE ( 'NONE', #189, #177, #118, .T. ) ;
#147 = CARTESIAN_POINT ( 'NONE',  ( -27.50000000000000000, 0.000000000000000000, 20.00000000000000000 ) ) ;
#148 = DIRECTION ( 'NONE',  ( 1.000000000000000000, 0.000000000000000000, 0.000000000000000000 ) ) ;
#149 = CIRCLE ( 'NONE', #186, 19.50000000000000000 ) ;
#150 = DIRECTION ( 'NONE',  ( 1.000000000000000000, 0.000000000000000000, 0.000000000000000000 ) ) ;
#151 = PRODUCT_DEFINITION_FORMATION_WITH_SPECIFIED_SOURCE ( 'ANY', '', #157, .NOT_KNOWN. ) ;
#152 = DIRECTION ( 'NONE',  ( 1.000000000000000000, 0.000000000000000000, 0.000000000000000000 ) ) ;
#153 = CC_DESIGN_SECURITY_CLASSIFICATION ( #250, ( #151 ) ) ;
#154 = CARTESIAN_POINT ( 'NONE',  ( 0.000000000000000000, 0.000000000000000000, -28.00000000000000000 ) ) ;
#155 = DIRECTION ( 'NONE',  ( -0.000000000000000000, -0.000000000000000000, 1.000000000000000000 ) ) ;
#156 = DIRECTION ( 'NONE',  ( 1.000000000000000000, 0.000000000000000000, 0.000000000000000000 ) ) ;
#157 = PRODUCT ( 'R4-106', 'R4-106', '', ( #132 ) ) ;
#158 = EDGE_CURVE ( 'NONE', #219, #294, #19, .T. ) ;
#159 = CYLINDRICAL_SURFACE ( 'NONE', #290, 19.50000000000000000 ) ;
#160 = AXIS2_PLACEMENT_3D ( 'NONE', #329, #50, #255 ) ;
#161 = CC_DESIGN_APPROVAL ( #89, ( #151 ) ) ;
#162 =( NAMED_UNIT ( * ) PLANE_ANGLE_UNIT ( ) SI_UNIT ( $, .RADIAN. ) );
#163 = EDGE_LOOP ( 'NONE', ( #241, #170 ) ) ;
#164 = DATE_AND_TIME ( #82, #296 ) ;
#165 = ORIENTED_EDGE ( 'NONE', *, *, #146, .T. ) ;
#166 = AXIS2_PLACEMENT_3D ( 'NONE', #129, #185, #75 ) ;
#167 = COORDINATED_UNIVERSAL_TIME_OFFSET ( 1, 0, .AHEAD. ) ;
#168 = EDGE_LOOP ( 'NONE', ( #286, #192 ) ) ;
#169 = APPROVAL_STATUS ( 'not_yet_approved' ) ;
#170 = ORIENTED_EDGE ( 'NONE', *, *, #38, .F. ) ;
#171 = ORIENTED_EDGE ( 'NONE', *, *, #119, .T. ) ;
#172 = AXIS2_PLACEMENT_3D ( 'NONE', #27, #74, #206 ) ;
#173 = ORIENTED_EDGE ( 'NONE', *, *, #325, .F. ) ;
#174 = EDGE_CURVE ( 'NONE', #115, #139, #181, .T. ) ;
#175 = APPROVAL_PERSON_ORGANIZATION ( #109, #89, #8 ) ;
#176 = DIRECTION ( 'NONE',  ( 1.000000000000000000, 0.000000000000000000, 0.000000000000000000 ) ) ;
#177 = VERTEX_POINT ( 'NONE', #282 ) ;
#178 = DIRECTION ( 'NONE',  ( -1.000000000000000000, 0.000000000000000000, 0.000000000000000000 ) ) ;
#179 = LINE ( 'NONE', #209, #223 ) ;
#180 = CYLINDRICAL_SURFACE ( 'NONE', #172, 25.00000000000000000 ) ;
#181 = LINE ( 'NONE', #95, #94 ) ;
#182 = DIRECTION ( 'NONE',  ( -0.000000000000000000, -0.000000000000000000, -1.000000000000000000 ) ) ;
#183 = EDGE_CURVE ( 'NONE', #81, #219, #235, .T. ) ;
#184 = CARTESIAN_POINT ( 'NONE',  ( 0.000000000000000000, 0.000000000000000000, -28.00000000000000000 ) ) ;
#185 = DIRECTION ( 'NONE',  ( 0.000000000000000000, 0.000000000000000000, 1.000000000000000000 ) ) ;
#186 = AXIS2_PLACEMENT_3D ( 'NONE', #127, #30, #152 ) ;
#187 =( GEOMETRIC_REPRESENTATION_CONTEXT ( 3 ) GLOBAL_UNCERTAINTY_ASSIGNED_CONTEXT ( ( #68 ) ) GLOBAL_UNIT_ASSIGNED_CONTEXT ( ( #205, #162, #11 ) ) REPRESENTATION_CONTEXT ( 'NONE', 'WORKASPACE' ) );
#188 = CALENDAR_DATE ( 2022, 1, 7 ) ;
#189 = VERTEX_POINT ( 'NONE', #7 ) ;
#190 = EDGE_LOOP ( 'NONE', ( #142, #87, #14, #315 ) ) ;
#191 = PERSON_AND_ORGANIZATION ( #321, #123 ) ;
#192 = ORIENTED_EDGE ( 'NONE', *, *, #84, .T. ) ;
#193 = COORDINATED_UNIVERSAL_TIME_OFFSET ( 1, 0, .AHEAD. ) ;
#194 = ORIENTED_EDGE ( 'NONE', *, *, #233, .F. ) ;
#195 = DESIGN_CONTEXT ( 'detailed design', #230, 'design' ) ;
#196 = ORIENTED_EDGE ( 'NONE', *, *, #325, .T. ) ;
#197 = DIRECTION ( 'NONE',  ( 0.000000000000000000, 0.000000000000000000, 1.000000000000000000 ) ) ;
#198 = AXIS2_PLACEMENT_3D ( 'NONE', #31, #307, #231 ) ;
#199 = ADVANCED_FACE ( 'NONE', ( #279 ), #51, .F. ) ;
#200 = DIRECTION ( 'NONE',  ( 0.000000000000000000, 0.000000000000000000, 1.000000000000000000 ) ) ;
#201 = CC_DESIGN_PERSON_AND_ORGANIZATION_ASSIGNMENT ( #319, #133, ( #1 ) ) ;
#202 = CARTESIAN_POINT ( 'NONE',  ( 0.000000000000000000, 0.000000000000000000, 20.00000000000000000 ) ) ;
#203 = CARTESIAN_POINT ( 'NONE',  ( 0.000000000000000000, 0.000000000000000000, -28.00000000000000000 ) ) ;
#204 = DIRECTION ( 'NONE',  ( -1.000000000000000000, 0.000000000000000000, -0.000000000000000000 ) ) ;
#205 =( LENGTH_UNIT ( ) NAMED_UNIT ( * ) SI_UNIT ( .MILLI., .METRE. ) );
#206 = DIRECTION ( 'NONE',  ( 1.000000000000000000, 0.000000000000000000, 0.000000000000000000 ) ) ;
#207 = LOCAL_TIME ( 8, 18, 59.00000000000000000, #167 ) ;
#208 = ADVANCED_FACE ( 'NONE', ( #76, #304 ), #257, .T. ) ;
#209 = CARTESIAN_POINT ( 'NONE',  ( -25.00000000000000000, 3.061616997868383043E-15, -28.00000000000000000 ) ) ;
#210 = DIRECTION ( 'NONE',  ( -0.000000000000000000, -0.000000000000000000, -1.000000000000000000 ) ) ;
#211 = DIRECTION ( 'NONE',  ( 0.000000000000000000, 0.000000000000000000, 1.000000000000000000 ) ) ;
#212 = DIRECTION ( 'NONE',  ( 1.000000000000000000, 0.000000000000000000, 0.000000000000000000 ) ) ;
#213 = APPROVAL_ROLE ( '' ) ;
#214 = ORIENTED_EDGE ( 'NONE', *, *, #233, .T. ) ;
#215 = CC_DESIGN_APPROVAL ( #9, ( #250 ) ) ;
#216 = APPROVAL_STATUS ( 'not_yet_approved' ) ;
#217 = VERTEX_POINT ( 'NONE', #125 ) ;
#218 = APPROVAL_DATE_TIME ( #78, #298 ) ;
#219 = VERTEX_POINT ( 'NONE', #234 ) ;
#220 = DATE_AND_TIME ( #15, #291 ) ;
#221 = ORIENTED_EDGE ( 'NONE', *, *, #52, .T. ) ;
#222 = EDGE_CURVE ( 'NONE', #134, #294, #149, .T. ) ;
#223 = VECTOR ( 'NONE', #253, 1000.000000000000000 ) ;
#224 = CARTESIAN_POINT ( 'NONE',  ( -25.00000000000000000, 3.061616997868383043E-15, -28.00000000000000000 ) ) ;
#225 = DATE_AND_TIME ( #114, #297 ) ;
#226 = ORIENTED_EDGE ( 'NONE', *, *, #158, .T. ) ;
#227 = DIRECTION ( 'NONE',  ( 1.000000000000000000, 0.000000000000000000, 0.000000000000000000 ) ) ;
#228 = AXIS2_PLACEMENT_3D ( 'NONE', #99, #210, #150 ) ;
#229 = DIRECTION ( 'NONE',  ( 1.000000000000000000, 0.000000000000000000, 0.000000000000000000 ) ) ;
#230 = APPLICATION_CONTEXT ( 'configuration controlled 3d designs of mechanical parts and assemblies' ) ;
#231 = DIRECTION ( 'NONE',  ( -1.000000000000000000, 0.000000000000000000, 0.000000000000000000 ) ) ;
#232 = DIRECTION ( 'NONE',  ( -1.000000000000000000, 0.000000000000000000, 0.000000000000000000 ) ) ;
#233 = EDGE_CURVE ( 'NONE', #294, #134, #283, .T. ) ;
#234 = CARTESIAN_POINT ( 'NONE',  ( -19.50000000000000000, 2.388061258337338939E-15, -28.00000000000000000 ) ) ;
#235 = CIRCLE ( 'NONE', #316, 19.50000000000000000 ) ;
#236 = CARTESIAN_POINT ( 'NONE',  ( 19.50000000000000000, 0.000000000000000000, -28.00000000000000000 ) ) ;
#237 = LINE ( 'NONE', #308, #143 ) ;
#238 = DIRECTION ( 'NONE',  ( -0.000000000000000000, -0.000000000000000000, 1.000000000000000000 ) ) ;
#239 = APPLICATION_PROTOCOL_DEFINITION ( 'international standard', 'config_control_design', 1994, #230 ) ;
#240 = APPROVAL_DATE_TIME ( #57, #89 ) ;
#241 = ORIENTED_EDGE ( 'NONE', *, *, #119, .F. ) ;
#242 = EDGE_CURVE ( 'NONE', #34, #189, #237, .T. ) ;
#243 = PERSON_AND_ORGANIZATION_ROLE ( 'design_supplier' ) ;
#244 = EDGE_LOOP ( 'NONE', ( #314, #196 ) ) ;
#245 = EDGE_LOOP ( 'NONE', ( #102, #12, #83, #221 ) ) ;
#246 = VECTOR ( 'NONE', #322, 1000.000000000000000 ) ;
#247 = SHAPE_DEFINITION_REPRESENTATION ( #130, #80 ) ;
#248 = EDGE_LOOP ( 'NONE', ( #173, #226, #214, #107 ) ) ;
#249 = DIRECTION ( 'NONE',  ( -0.000000000000000000, -0.000000000000000000, -1.000000000000000000 ) ) ;
#250 = SECURITY_CLASSIFICATION ( '', '', #141 ) ;
#251 = EDGE_CURVE ( 'NONE', #115, #144, #60, .T. ) ;
#252 = DIRECTION ( 'NONE',  ( 1.000000000000000000, 0.000000000000000000, -0.000000000000000000 ) ) ;
#253 = DIRECTION ( 'NONE',  ( -0.000000000000000000, -0.000000000000000000, 1.000000000000000000 ) ) ;
#254 = AXIS2_PLACEMENT_3D ( 'NONE', #26, #155, #156 ) ;
#255 = DIRECTION ( 'NONE',  ( -1.000000000000000000, 0.000000000000000000, 0.000000000000000000 ) ) ;
#256 = FACE_OUTER_BOUND ( 'NONE', #168, .T. ) ;
#257 = PLANE ( 'NONE',  #295 ) ;
#258 = DIRECTION ( 'NONE',  ( -0.000000000000000000, -0.000000000000000000, 1.000000000000000000 ) ) ;
#259 = CALENDAR_DATE ( 2022, 1, 7 ) ;
#260 = PRODUCT_RELATED_PRODUCT_CATEGORY ( 'detail', '', ( #157 ) ) ;
#261 = VECTOR ( 'NONE', #20, 1000.000000000000000 ) ;
#262 = PERSON_AND_ORGANIZATION_ROLE ( 'classification_officer' ) ;
#263 = ORIENTED_EDGE ( 'NONE', *, *, #52, .F. ) ;
#264 = ADVANCED_FACE ( 'NONE', ( #6 ), #101, .T. ) ;
#265 = APPROVAL_STATUS ( 'not_yet_approved' ) ;
#266 = DIRECTION ( 'NONE',  ( 1.000000000000000000, 0.000000000000000000, 0.000000000000000000 ) ) ;
#267 = ORIENTED_EDGE ( 'NONE', *, *, #62, .F. ) ;
#268 = ORIENTED_EDGE ( 'NONE', *, *, #251, .F. ) ;
#269 = CIRCLE ( 'NONE', #73, 27.50000000000000000 ) ;
#270 = EDGE_LOOP ( 'NONE', ( #318, #58, #165, #267 ) ) ;
#271 = DIRECTION ( 'NONE',  ( 1.000000000000000000, 0.000000000000000000, 0.000000000000000000 ) ) ;
#272 = VECTOR ( 'NONE', #278, 1000.000000000000000 ) ;
#273 = EDGE_CURVE ( 'NONE', #217, #34, #135, .T. ) ;
#274 = CARTESIAN_POINT ( 'NONE',  ( 0.000000000000000000, 0.000000000000000000, 20.00000000000000000 ) ) ;
#275 = PLANE ( 'NONE',  #90 ) ;
#276 = FACE_OUTER_BOUND ( 'NONE', #270, .T. ) ;
#277 = AXIS2_PLACEMENT_3D ( 'NONE', #274, #326, #327 ) ;
#278 = DIRECTION ( 'NONE',  ( -0.000000000000000000, -0.000000000000000000, 1.000000000000000000 ) ) ;
#279 = FACE_OUTER_BOUND ( 'NONE', #190, .T. ) ;
#280 = DIRECTION ( 'NONE',  ( 0.000000000000000000, 0.000000000000000000, -1.000000000000000000 ) ) ;
#281 = CARTESIAN_POINT ( 'NONE',  ( 19.50000000000000000, 0.000000000000000000, 20.00000000000000000 ) ) ;
#282 = CARTESIAN_POINT ( 'NONE',  ( -27.50000000000000000, 0.000000000000000000, 0.000000000000000000 ) ) ;
#283 = CIRCLE ( 'NONE', #166, 19.50000000000000000 ) ;
#284 = PERSON_AND_ORGANIZATION ( #321, #123 ) ;
#285 = PERSON_AND_ORGANIZATION ( #321, #123 ) ;
#286 = ORIENTED_EDGE ( 'NONE', *, *, #251, .T. ) ;
#287 = CARTESIAN_POINT ( 'NONE',  ( 0.000000000000000000, 0.000000000000000000, 0.000000000000000000 ) ) ;
#288 = EDGE_LOOP ( 'NONE', ( #37, #194 ) ) ;
#289 = ADVANCED_FACE ( 'NONE', ( #97 ), #159, .F. ) ;
#290 = AXIS2_PLACEMENT_3D ( 'NONE', #48, #258, #212 ) ;
#291 = LOCAL_TIME ( 8, 18, 59.00000000000000000, #88 ) ;
#292 = COORDINATED_UNIVERSAL_TIME_OFFSET ( 1, 0, .AHEAD. ) ;
#293 = ORIENTED_EDGE ( 'NONE', *, *, #300, .T. ) ;
#294 = VERTEX_POINT ( 'NONE', #310 ) ;
#295 = AXIS2_PLACEMENT_3D ( 'NONE', #124, #28, #122 ) ;
#296 = LOCAL_TIME ( 8, 18, 59.00000000000000000, #193 ) ;
#297 = LOCAL_TIME ( 8, 18, 59.00000000000000000, #106 ) ;
#298 = APPROVAL ( #216, 'UNSPECIFIED' ) ;
#299 = CYLINDRICAL_SURFACE ( 'NONE', #277, 27.50000000000000000 ) ;
#300 = EDGE_CURVE ( 'NONE', #144, #18, #179, .T. ) ;
#301 = ORIENTED_EDGE ( 'NONE', *, *, #38, .T. ) ;
#302 = DIRECTION ( 'NONE',  ( 0.000000000000000000, 0.000000000000000000, 1.000000000000000000 ) ) ;
#303 = DIRECTION ( 'NONE',  ( 0.000000000000000000, 0.000000000000000000, -1.000000000000000000 ) ) ;
#304 = FACE_OUTER_BOUND ( 'NONE', #61, .T. ) ;
#305 = AXIS2_PLACEMENT_3D ( 'NONE', #46, #324, #252 ) ;
#306 = CARTESIAN_POINT ( 'NONE',  ( 25.00000000000000000, 0.000000000000000000, 0.000000000000000000 ) ) ;
#307 = DIRECTION ( 'NONE',  ( -0.000000000000000000, -0.000000000000000000, -1.000000000000000000 ) ) ;
#308 = CARTESIAN_POINT ( 'NONE',  ( 27.50000000000000000, 3.367778697655221307E-15, 20.00000000000000000 ) ) ;
#309 = ADVANCED_FACE ( 'NONE', ( #276 ), #24, .T. ) ;
#310 = CARTESIAN_POINT ( 'NONE',  ( -19.50000000000000000, 2.388061258337338939E-15, 20.00000000000000000 ) ) ;
#311 = CIRCLE ( 'NONE', #228, 25.00000000000000000 ) ;
#312 = ORIENTED_EDGE ( 'NONE', *, *, #21, .T. ) ;
#313 = APPROVAL_DATE_TIME ( #225, #9 ) ;
#314 = ORIENTED_EDGE ( 'NONE', *, *, #183, .T. ) ;
#315 = ORIENTED_EDGE ( 'NONE', *, *, #222, .T. ) ;
#316 = AXIS2_PLACEMENT_3D ( 'NONE', #203, #54, #232 ) ;
#317 = PERSON_AND_ORGANIZATION ( #321, #123 ) ;
#318 = ORIENTED_EDGE ( 'NONE', *, *, #21, .F. ) ;
#319 = PERSON_AND_ORGANIZATION ( #321, #123 ) ;
#320 = ORIENTED_EDGE ( 'NONE', *, *, #146, .F. ) ;
#321 = PERSON ( 'UNSPECIFIED', 'UNSPECIFIED', 'UNSPECIFIED', ('UNSPECIFIED'), ('UNSPECIFIED'), ('UNSPECIFIED') ) ;
#322 = DIRECTION ( 'NONE',  ( -0.000000000000000000, -0.000000000000000000, 1.000000000000000000 ) ) ;
#323 = CC_DESIGN_PERSON_AND_ORGANIZATION_ASSIGNMENT ( #191, #36, ( #151 ) ) ;
#324 = DIRECTION ( 'NONE',  ( 0.000000000000000000, 0.000000000000000000, 1.000000000000000000 ) ) ;
#325 = EDGE_CURVE ( 'NONE', #219, #81, #66, .T. ) ;
#326 = DIRECTION ( 'NONE',  ( -0.000000000000000000, -0.000000000000000000, -1.000000000000000000 ) ) ;
#327 = DIRECTION ( 'NONE',  ( -1.000000000000000000, 0.000000000000000000, 0.000000000000000000 ) ) ;
#328 = AXIS2_PLACEMENT_3D ( 'NONE', #184, #280, #70 ) ;
#329 = CARTESIAN_POINT ( 'NONE',  ( 0.000000000000000000, 0.000000000000000000, -28.00000000000000000 ) ) ;
ENDSEC;
END-ISO-10303-21;
