ISO-10303-21;
HEADER;
FILE_DESCRIPTION (( 'STEP AP203' ),
    '1' );
FILE_NAME ('R4-107.STEP',
    '2022-07-01T06:19:25',
    ( '' ),
    ( '' ),
    'SwSTEP 2.0',
    'SolidWorks 2022',
    '' );
FILE_SCHEMA (( 'CONFIG_CONTROL_DESIGN' ));
ENDSEC;

DATA;
#1 = DIRECTION ( 'NONE',  ( 1.000000000000000000, 0.000000000000000000, 0.000000000000000000 ) ) ;
#2 = COORDINATED_UNIVERSAL_TIME_OFFSET ( 1, 0, .AHEAD. ) ;
#3 = ORIENTED_EDGE ( 'NONE', *, *, #87, .F. ) ;
#4 = ORIENTED_EDGE ( 'NONE', *, *, #219, .F. ) ;
#5 = EDGE_CURVE ( 'NONE', #164, #316, #238, .T. ) ;
#6 = ORIENTED_EDGE ( 'NONE', *, *, #195, .F. ) ;
#7 = CALENDAR_DATE ( 2022, 1, 7 ) ;
#8 = EDGE_LOOP ( 'NONE', ( #159, #33, #110, #213 ) ) ;
#9 = CIRCLE ( 'NONE', #197, 32.50000000000000000 ) ;
#10 = DATE_AND_TIME ( #212, #306 ) ;
#11 = ORIENTED_EDGE ( 'NONE', *, *, #186, .F. ) ;
#12 = CYLINDRICAL_SURFACE ( 'NONE', #86, 22.45000000000000284 ) ;
#13 = CARTESIAN_POINT ( 'NONE',  ( 30.00000000000000000, 0.000000000000000000, -30.00000000000000000 ) ) ;
#14 = DIRECTION ( 'NONE',  ( 1.000000000000000000, 0.000000000000000000, 0.000000000000000000 ) ) ;
#15 = EDGE_CURVE ( 'NONE', #164, #275, #260, .T. ) ;
#16 = DIRECTION ( 'NONE',  ( -0.000000000000000000, -0.000000000000000000, 1.000000000000000000 ) ) ;
#17 = LINE ( 'NONE', #323, #322 ) ;
#18 = DIRECTION ( 'NONE',  ( 1.000000000000000000, 0.000000000000000000, 0.000000000000000000 ) ) ;
#19 = DIRECTION ( 'NONE',  ( -0.000000000000000000, -0.000000000000000000, -1.000000000000000000 ) ) ;
#20 = CARTESIAN_POINT ( 'NONE',  ( 32.50000000000000000, 3.980102097228898626E-15, 20.00000000000000000 ) ) ;
#21 = CC_DESIGN_PERSON_AND_ORGANIZATION_ASSIGNMENT ( #74, #161, ( #41 ) ) ;
#22 = CARTESIAN_POINT ( 'NONE',  ( 22.45000000000000284, 0.000000000000000000, -30.00100000000000477 ) ) ;
#23 = VECTOR ( 'NONE', #249, 1000.000000000000000 ) ;
#24 = CARTESIAN_POINT ( 'NONE',  ( 0.000000000000000000, 0.000000000000000000, 0.000000000000000000 ) ) ;
#25 = COORDINATED_UNIVERSAL_TIME_OFFSET ( 1, 0, .AHEAD. ) ;
#26 = EDGE_LOOP ( 'NONE', ( #102, #3 ) ) ;
#27 = SECURITY_CLASSIFICATION_LEVEL ( 'unclassified' ) ;
#28 = ORIENTED_EDGE ( 'NONE', *, *, #302, .T. ) ;
#29 = ADVANCED_FACE ( 'NONE', ( #240, #245 ), #194, .T. ) ;
#30 = COORDINATED_UNIVERSAL_TIME_OFFSET ( 1, 0, .AHEAD. ) ;
#31 = ORIENTED_EDGE ( 'NONE', *, *, #15, .F. ) ;
#32 = PERSON_AND_ORGANIZATION ( #200, #165 ) ;
#33 = ORIENTED_EDGE ( 'NONE', *, *, #15, .T. ) ;
#34 = APPLICATION_PROTOCOL_DEFINITION ( 'international standard', 'config_control_design', 1994, #147 ) ;
#35 = CARTESIAN_POINT ( 'NONE',  ( -22.45000000000000284, 2.749332064085808099E-15, -30.00100000000000477 ) ) ;
#36 = CIRCLE ( 'NONE', #153, 30.00000000000000000 ) ;
#37 = FACE_OUTER_BOUND ( 'NONE', #49, .T. ) ;
#38 = FACE_BOUND ( 'NONE', #55, .T. ) ;
#39 = APPROVAL ( #282, 'UNSPECIFIED' ) ;
#40 = DIRECTION ( 'NONE',  ( 1.000000000000000000, 0.000000000000000000, -0.000000000000000000 ) ) ;
#41 = PRODUCT_DEFINITION_FORMATION_WITH_SPECIFIED_SOURCE ( 'ANY', '', #126, .NOT_KNOWN. ) ;
#42 = ADVANCED_FACE ( 'NONE', ( #84 ), #12, .F. ) ;
#43 = CYLINDRICAL_SURFACE ( 'NONE', #152, 30.00000000000000000 ) ;
#44 = DIRECTION ( 'NONE',  ( -0.000000000000000000, -0.000000000000000000, 1.000000000000000000 ) ) ;
#45 = CC_DESIGN_PERSON_AND_ORGANIZATION_ASSIGNMENT ( #288, #77, ( #41 ) ) ;
#46 = LINE ( 'NONE', #22, #94 ) ;
#47 = ORIENTED_EDGE ( 'NONE', *, *, #87, .T. ) ;
#48 = CARTESIAN_POINT ( 'NONE',  ( 0.000000000000000000, 0.000000000000000000, -30.00000000000000000 ) ) ;
#49 = EDGE_LOOP ( 'NONE', ( #211, #4, #129, #76 ) ) ;
#50 = CYLINDRICAL_SURFACE ( 'NONE', #214, 22.45000000000000284 ) ;
#51 = EDGE_CURVE ( 'NONE', #135, #250, #263, .T. ) ;
#52 = CARTESIAN_POINT ( 'NONE',  ( -32.50000000000000000, 0.000000000000000000, 0.000000000000000000 ) ) ;
#53 = CIRCLE ( 'NONE', #80, 22.45000000000000284 ) ;
#54 = COORDINATED_UNIVERSAL_TIME_OFFSET ( 1, 0, .AHEAD. ) ;
#55 = EDGE_LOOP ( 'NONE', ( #216, #326 ) ) ;
#56 = ORIENTED_EDGE ( 'NONE', *, *, #134, .F. ) ;
#57 = APPROVAL_DATE_TIME ( #10, #166 ) ;
#58 = ORIENTED_EDGE ( 'NONE', *, *, #186, .T. ) ;
#59 = CALENDAR_DATE ( 2022, 1, 7 ) ;
#60 = DIRECTION ( 'NONE',  ( -1.000000000000000000, 0.000000000000000000, 0.000000000000000000 ) ) ;
#61 = DIRECTION ( 'NONE',  ( 1.000000000000000000, 0.000000000000000000, 0.000000000000000000 ) ) ;
#62 = CARTESIAN_POINT ( 'NONE',  ( 32.50000000000000000, 3.980102097228898626E-15, 0.000000000000000000 ) ) ;
#63 = ADVANCED_FACE ( 'NONE', ( #38, #142 ), #111, .T. ) ;
#64 = PLANE ( 'NONE',  #123 ) ;
#65 = AXIS2_PLACEMENT_3D ( 'NONE', #148, #150, #1 ) ;
#66 = CARTESIAN_POINT ( 'NONE',  ( 0.000000000000000000, 0.000000000000000000, 20.00000000000000000 ) ) ;
#67 = DIRECTION ( 'NONE',  ( 0.000000000000000000, 0.000000000000000000, -1.000000000000000000 ) ) ;
#68 = DIRECTION ( 'NONE',  ( 0.000000000000000000, 0.000000000000000000, 1.000000000000000000 ) ) ;
#69 = DIRECTION ( 'NONE',  ( -0.000000000000000000, -0.000000000000000000, -1.000000000000000000 ) ) ;
#70 = CC_DESIGN_DATE_AND_TIME_ASSIGNMENT ( #235, #184, ( #327 ) ) ;
#71 = CARTESIAN_POINT ( 'NONE',  ( 0.000000000000000000, 0.000000000000000000, 0.000000000000000000 ) ) ;
#72 = EDGE_CURVE ( 'NONE', #275, #98, #146, .T. ) ;
#73 = LOCAL_TIME ( 8, 19, 25.00000000000000000, #30 ) ;
#74 = PERSON_AND_ORGANIZATION ( #200, #165 ) ;
#75 = APPROVAL_DATE_TIME ( #103, #280 ) ;
#76 = ORIENTED_EDGE ( 'NONE', *, *, #149, .T. ) ;
#77 = PERSON_AND_ORGANIZATION_ROLE ( 'creator' ) ;
#78 = VERTEX_POINT ( 'NONE', #221 ) ;
#79 = DATE_TIME_ROLE ( 'creation_date' ) ;
#80 = AXIS2_PLACEMENT_3D ( 'NONE', #305, #274, #230 ) ;
#81 = EDGE_LOOP ( 'NONE', ( #162, #255 ) ) ;
#82 = PRODUCT_RELATED_PRODUCT_CATEGORY ( 'detail', '', ( #126 ) ) ;
#83 = EDGE_LOOP ( 'NONE', ( #31, #189, #183, #237 ) ) ;
#84 = FACE_OUTER_BOUND ( 'NONE', #8, .T. ) ;
#85 = LOCAL_TIME ( 8, 19, 25.00000000000000000, #155 ) ;
#86 = AXIS2_PLACEMENT_3D ( 'NONE', #117, #16, #14 ) ;
#87 = EDGE_CURVE ( 'NONE', #78, #250, #114, .T. ) ;
#88 = DIRECTION ( 'NONE',  ( 1.000000000000000000, 0.000000000000000000, -0.000000000000000000 ) ) ;
#89 = FACE_OUTER_BOUND ( 'NONE', #225, .T. ) ;
#90 = CARTESIAN_POINT ( 'NONE',  ( 22.45000000000000284, 0.000000000000000000, 20.00000000000000000 ) ) ;
#91 = LOCAL_TIME ( 8, 19, 25.00000000000000000, #25 ) ;
#92 = AXIS2_PLACEMENT_3D ( 'NONE', #246, #44, #297 ) ;
#93 = CC_DESIGN_PERSON_AND_ORGANIZATION_ASSIGNMENT ( #182, #285, ( #127 ) ) ;
#94 = VECTOR ( 'NONE', #303, 1000.000000000000000 ) ;
#95 = DIRECTION ( 'NONE',  ( -0.000000000000000000, -0.000000000000000000, -1.000000000000000000 ) ) ;
#96 = APPLICATION_PROTOCOL_DEFINITION ( 'international standard', 'config_control_design', 1994, #298 ) ;
#97 = CARTESIAN_POINT ( 'NONE',  ( 0.000000000000000000, 0.000000000000000000, -30.00000000000000000 ) ) ;
#98 = VERTEX_POINT ( 'NONE', #90 ) ;
#99 = CARTESIAN_POINT ( 'NONE',  ( 22.45000000000000284, 0.000000000000000000, -30.00000000000000000 ) ) ;
#100 = ADVANCED_FACE ( 'NONE', ( #319, #217 ), #64, .F. ) ;
#101 = DIRECTION ( 'NONE',  ( -1.000000000000000000, 0.000000000000000000, 0.000000000000000000 ) ) ;
#102 = ORIENTED_EDGE ( 'NONE', *, *, #264, .F. ) ;
#103 = DATE_AND_TIME ( #207, #85 ) ;
#104 = EDGE_LOOP ( 'NONE', ( #185, #315 ) ) ;
#105 = APPROVAL_ROLE ( '' ) ;
#106 = AXIS2_PLACEMENT_3D ( 'NONE', #125, #329, #300 ) ;
#107 = CARTESIAN_POINT ( 'NONE',  ( 0.000000000000000000, 0.000000000000000000, -30.00000000000000000 ) ) ;
#108 = ADVANCED_FACE ( 'NONE', ( #89 ), #43, .T. ) ;
#109 = APPROVAL_ROLE ( '' ) ;
#110 = ORIENTED_EDGE ( 'NONE', *, *, #72, .T. ) ;
#111 = PLANE ( 'NONE',  #202 ) ;
#112 = DIRECTION ( 'NONE',  ( 0.000000000000000000, 0.000000000000000000, -1.000000000000000000 ) ) ;
#113 = CC_DESIGN_APPROVAL ( #280, ( #127 ) ) ;
#114 = CIRCLE ( 'NONE', #266, 30.00000000000000000 ) ;
#115 = CARTESIAN_POINT ( 'NONE',  ( 0.000000000000000000, 0.000000000000000000, -30.00000000000000000 ) ) ;
#116 = CARTESIAN_POINT ( 'NONE',  ( 30.00000000000000000, 0.000000000000000000, -30.00000000000000000 ) ) ;
#117 = CARTESIAN_POINT ( 'NONE',  ( 0.000000000000000000, 0.000000000000000000, -30.00100000000000477 ) ) ;
#118 = DIRECTION ( 'NONE',  ( -0.000000000000000000, -0.000000000000000000, 1.000000000000000000 ) ) ;
#119 = CARTESIAN_POINT ( 'NONE',  ( 0.000000000000000000, 0.000000000000000000, 20.00000000000000000 ) ) ;
#120 = ADVANCED_FACE ( 'NONE', ( #196 ), #141, .T. ) ;
#121 = CARTESIAN_POINT ( 'NONE',  ( 0.000000000000000000, 0.000000000000000000, 20.00000000000000000 ) ) ;
#122 = ORIENTED_EDGE ( 'NONE', *, *, #325, .F. ) ;
#123 = AXIS2_PLACEMENT_3D ( 'NONE', #192, #268, #88 ) ;
#124 = AXIS2_PLACEMENT_3D ( 'NONE', #97, #118, #228 ) ;
#125 = CARTESIAN_POINT ( 'NONE',  ( 0.000000000000000000, 0.000000000000000000, 20.00000000000000000 ) ) ;
#126 = PRODUCT ( 'R4-107', 'R4-107', '', ( #310 ) ) ;
#127 = PRODUCT_DEFINITION ( 'UNKNOWN', '', #41, #304 ) ;
#128 = APPROVAL_ROLE ( '' ) ;
#129 = ORIENTED_EDGE ( 'NONE', *, *, #325, .T. ) ;
#130 = CIRCLE ( 'NONE', #277, 32.50000000000000000 ) ;
#131 = EDGE_LOOP ( 'NONE', ( #208, #28 ) ) ;
#132 = PERSON_AND_ORGANIZATION ( #200, #165 ) ;
#133 = ORIENTED_EDGE ( 'NONE', *, *, #243, .T. ) ;
#134 = EDGE_CURVE ( 'NONE', #309, #167, #9, .T. ) ;
#135 = VERTEX_POINT ( 'NONE', #13 ) ;
#136 = PERSON_AND_ORGANIZATION ( #200, #165 ) ;
#137 =( GEOMETRIC_REPRESENTATION_CONTEXT ( 3 ) GLOBAL_UNCERTAINTY_ASSIGNED_CONTEXT ( ( #270 ) ) GLOBAL_UNIT_ASSIGNED_CONTEXT ( ( #204, #247, #324 ) ) REPRESENTATION_CONTEXT ( 'NONE', 'WORKASPACE' ) );
#138 = DIRECTION ( 'NONE',  ( -0.000000000000000000, -0.000000000000000000, 1.000000000000000000 ) ) ;
#139 = CYLINDRICAL_SURFACE ( 'NONE', #106, 32.50000000000000000 ) ;
#140 = CC_DESIGN_PERSON_AND_ORGANIZATION_ASSIGNMENT ( #132, #181, ( #327 ) ) ;
#141 = CYLINDRICAL_SURFACE ( 'NONE', #92, 30.00000000000000000 ) ;
#142 = FACE_OUTER_BOUND ( 'NONE', #131, .T. ) ;
#143 = DIRECTION ( 'NONE',  ( 0.000000000000000000, 0.000000000000000000, 1.000000000000000000 ) ) ;
#144 = DIRECTION ( 'NONE',  ( 0.000000000000000000, 0.000000000000000000, 1.000000000000000000 ) ) ;
#145 = FACE_OUTER_BOUND ( 'NONE', #188, .T. ) ;
#146 = CIRCLE ( 'NONE', #256, 22.45000000000000284 ) ;
#147 = APPLICATION_CONTEXT ( 'configuration controlled 3d designs of mechanical parts and assemblies' ) ;
#148 = CARTESIAN_POINT ( 'NONE',  ( 0.000000000000000000, 0.000000000000000000, 0.000000000000000000 ) ) ;
#149 = EDGE_CURVE ( 'NONE', #232, #190, #130, .T. ) ;
#150 = DIRECTION ( 'NONE',  ( 0.000000000000000000, 0.000000000000000000, 1.000000000000000000 ) ) ;
#151 = CARTESIAN_POINT ( 'NONE',  ( 0.000000000000000000, 0.000000000000000000, -30.00100000000000477 ) ) ;
#152 = AXIS2_PLACEMENT_3D ( 'NONE', #293, #168, #61 ) ;
#153 = AXIS2_PLACEMENT_3D ( 'NONE', #48, #179, #101 ) ;
#154 = FACE_OUTER_BOUND ( 'NONE', #83, .T. ) ;
#155 = COORDINATED_UNIVERSAL_TIME_OFFSET ( 1, 0, .AHEAD. ) ;
#156 = APPROVAL_PERSON_ORGANIZATION ( #136, #280, #109 ) ;
#157 = AXIS2_PLACEMENT_3D ( 'NONE', #107, #215, #60 ) ;
#158 = SHAPE_DEFINITION_REPRESENTATION ( #278, #170 ) ;
#159 = ORIENTED_EDGE ( 'NONE', *, *, #5, .F. ) ;
#160 = CC_DESIGN_PERSON_AND_ORGANIZATION_ASSIGNMENT ( #32, #257, ( #126 ) ) ;
#161 = PERSON_AND_ORGANIZATION_ROLE ( 'design_supplier' ) ;
#162 = ORIENTED_EDGE ( 'NONE', *, *, #149, .F. ) ;
#163 = APPROVAL_DATE_TIME ( #254, #39 ) ;
#164 = VERTEX_POINT ( 'NONE', #169 ) ;
#165 = ORGANIZATION ( 'UNSPECIFIED', 'UNSPECIFIED', '' ) ;
#166 = APPROVAL ( #307, 'UNSPECIFIED' ) ;
#167 = VERTEX_POINT ( 'NONE', #193 ) ;
#168 = DIRECTION ( 'NONE',  ( -0.000000000000000000, -0.000000000000000000, 1.000000000000000000 ) ) ;
#169 = CARTESIAN_POINT ( 'NONE',  ( -22.45000000000000284, 2.749332064085808099E-15, -30.00000000000000000 ) ) ;
#170 = ADVANCED_BREP_SHAPE_REPRESENTATION ( 'R4-107', ( #226, #180 ), #137 ) ;
#171 = CC_DESIGN_APPROVAL ( #39, ( #327 ) ) ;
#172 = DIRECTION ( 'NONE',  ( -0.000000000000000000, -0.000000000000000000, 1.000000000000000000 ) ) ;
#173 = VECTOR ( 'NONE', #138, 1000.000000000000000 ) ;
#174 = AXIS2_PLACEMENT_3D ( 'NONE', #121, #68, #18 ) ;
#175 = EDGE_CURVE ( 'NONE', #309, #190, #17, .T. ) ;
#176 = DIRECTION ( 'NONE',  ( 0.000000000000000000, 0.000000000000000000, 1.000000000000000000 ) ) ;
#177 = CARTESIAN_POINT ( 'NONE',  ( -30.00000000000000000, 3.673940397442059178E-15, -30.00000000000000000 ) ) ;
#178 = DIRECTION ( 'NONE',  ( -1.000000000000000000, 0.000000000000000000, 0.000000000000000000 ) ) ;
#179 = DIRECTION ( 'NONE',  ( 0.000000000000000000, 0.000000000000000000, -1.000000000000000000 ) ) ;
#180 = AXIS2_PLACEMENT_3D ( 'NONE', #24, #253, #314 ) ;
#181 = PERSON_AND_ORGANIZATION_ROLE ( 'classification_officer' ) ;
#182 = PERSON_AND_ORGANIZATION ( #200, #165 ) ;
#183 = ORIENTED_EDGE ( 'NONE', *, *, #287, .T. ) ;
#184 = DATE_TIME_ROLE ( 'classification_date' ) ;
#185 = ORIENTED_EDGE ( 'NONE', *, *, #229, .F. ) ;
#186 = EDGE_CURVE ( 'NONE', #290, #78, #294, .T. ) ;
#187 = LOCAL_TIME ( 8, 19, 25.00000000000000000, #54 ) ;
#188 = EDGE_LOOP ( 'NONE', ( #56, #259, #133, #122 ) ) ;
#189 = ORIENTED_EDGE ( 'NONE', *, *, #276, .F. ) ;
#190 = VERTEX_POINT ( 'NONE', #62 ) ;
#191 = CC_DESIGN_SECURITY_CLASSIFICATION ( #327, ( #41 ) ) ;
#192 = CARTESIAN_POINT ( 'NONE',  ( 0.000000000000000000, 0.000000000000000000, 0.000000000000000000 ) ) ;
#193 = CARTESIAN_POINT ( 'NONE',  ( -32.50000000000000000, 0.000000000000000000, 20.00000000000000000 ) ) ;
#194 = PLANE ( 'NONE',  #301 ) ;
#195 = EDGE_CURVE ( 'NONE', #135, #290, #261, .T. ) ;
#196 = FACE_OUTER_BOUND ( 'NONE', #201, .T. ) ;
#197 = AXIS2_PLACEMENT_3D ( 'NONE', #66, #176, #242 ) ;
#198 = CARTESIAN_POINT ( 'NONE',  ( -30.00000000000000000, 3.673940397442059178E-15, -30.00000000000000000 ) ) ;
#199 = CYLINDRICAL_SURFACE ( 'NONE', #313, 32.50000000000000000 ) ;
#200 = PERSON ( 'UNSPECIFIED', 'UNSPECIFIED', 'UNSPECIFIED', ('UNSPECIFIED'), ('UNSPECIFIED'), ('UNSPECIFIED') ) ;
#201 = EDGE_LOOP ( 'NONE', ( #289, #58, #47, #281 ) ) ;
#202 = AXIS2_PLACEMENT_3D ( 'NONE', #115, #112, #318 ) ;
#203 = CARTESIAN_POINT ( 'NONE',  ( -32.50000000000000000, 0.000000000000000000, 20.00000000000000000 ) ) ;
#204 =( LENGTH_UNIT ( ) NAMED_UNIT ( * ) SI_UNIT ( .MILLI., .METRE. ) );
#205 = CARTESIAN_POINT ( 'NONE',  ( 30.00000000000000000, 0.000000000000000000, 0.000000000000000000 ) ) ;
#206 = AXIS2_PLACEMENT_3D ( 'NONE', #265, #67, #262 ) ;
#207 = CALENDAR_DATE ( 2022, 1, 7 ) ;
#208 = ORIENTED_EDGE ( 'NONE', *, *, #195, .T. ) ;
#209 = ADVANCED_FACE ( 'NONE', ( #37 ), #139, .T. ) ;
#210 = PERSON_AND_ORGANIZATION ( #200, #165 ) ;
#211 = ORIENTED_EDGE ( 'NONE', *, *, #175, .F. ) ;
#212 = CALENDAR_DATE ( 2022, 1, 7 ) ;
#213 = ORIENTED_EDGE ( 'NONE', *, *, #287, .F. ) ;
#214 = AXIS2_PLACEMENT_3D ( 'NONE', #151, #248, #224 ) ;
#215 = DIRECTION ( 'NONE',  ( -0.000000000000000000, -0.000000000000000000, 1.000000000000000000 ) ) ;
#216 = ORIENTED_EDGE ( 'NONE', *, *, #276, .T. ) ;
#217 = FACE_BOUND ( 'NONE', #26, .T. ) ;
#218 = CARTESIAN_POINT ( 'NONE',  ( 0.000000000000000000, 0.000000000000000000, 20.00000000000000000 ) ) ;
#219 = EDGE_CURVE ( 'NONE', #167, #309, #292, .T. ) ;
#220 = DIRECTION ( 'NONE',  ( -0.000000000000000000, -0.000000000000000000, -1.000000000000000000 ) ) ;
#221 = CARTESIAN_POINT ( 'NONE',  ( -30.00000000000000000, 3.673940397442059178E-15, 0.000000000000000000 ) ) ;
#222 = DIRECTION ( 'NONE',  ( 1.000000000000000000, 0.000000000000000000, 0.000000000000000000 ) ) ;
#223 = VECTOR ( 'NONE', #299, 1000.000000000000000 ) ;
#224 = DIRECTION ( 'NONE',  ( 1.000000000000000000, 0.000000000000000000, 0.000000000000000000 ) ) ;
#225 = EDGE_LOOP ( 'NONE', ( #11, #6, #234, #236 ) ) ;
#226 = MANIFOLD_SOLID_BREP ( 'Extrusion3', #328 ) ;
#227 = DIRECTION ( 'NONE',  ( 1.000000000000000000, 0.000000000000000000, 0.000000000000000000 ) ) ;
#228 = DIRECTION ( 'NONE',  ( -1.000000000000000000, 0.000000000000000000, 0.000000000000000000 ) ) ;
#229 = EDGE_CURVE ( 'NONE', #98, #275, #53, .T. ) ;
#230 = DIRECTION ( 'NONE',  ( 1.000000000000000000, 0.000000000000000000, 0.000000000000000000 ) ) ;
#231 = CALENDAR_DATE ( 2022, 1, 7 ) ;
#232 = VERTEX_POINT ( 'NONE', #52 ) ;
#233 = CC_DESIGN_DATE_AND_TIME_ASSIGNMENT ( #308, #79, ( #127 ) ) ;
#234 = ORIENTED_EDGE ( 'NONE', *, *, #51, .T. ) ;
#235 = DATE_AND_TIME ( #59, #187 ) ;
#236 = ORIENTED_EDGE ( 'NONE', *, *, #264, .T. ) ;
#237 = ORIENTED_EDGE ( 'NONE', *, *, #229, .T. ) ;
#238 = CIRCLE ( 'NONE', #157, 22.45000000000000284 ) ;
#239 = APPROVAL_STATUS ( 'not_yet_approved' ) ;
#240 = FACE_BOUND ( 'NONE', #104, .T. ) ;
#241 = CARTESIAN_POINT ( 'NONE',  ( 0.000000000000000000, 0.000000000000000000, 20.00000000000000000 ) ) ;
#242 = DIRECTION ( 'NONE',  ( 1.000000000000000000, 0.000000000000000000, 0.000000000000000000 ) ) ;
#243 = EDGE_CURVE ( 'NONE', #190, #232, #267, .T. ) ;
#244 = DIRECTION ( 'NONE',  ( 1.000000000000000000, 0.000000000000000000, 0.000000000000000000 ) ) ;
#245 = FACE_OUTER_BOUND ( 'NONE', #283, .T. ) ;
#246 = CARTESIAN_POINT ( 'NONE',  ( 0.000000000000000000, 0.000000000000000000, -30.00000000000000000 ) ) ;
#247 =( NAMED_UNIT ( * ) PLANE_ANGLE_UNIT ( ) SI_UNIT ( $, .RADIAN. ) );
#248 = DIRECTION ( 'NONE',  ( -0.000000000000000000, -0.000000000000000000, 1.000000000000000000 ) ) ;
#249 = DIRECTION ( 'NONE',  ( -0.000000000000000000, -0.000000000000000000, -1.000000000000000000 ) ) ;
#250 = VERTEX_POINT ( 'NONE', #205 ) ;
#251 = ADVANCED_FACE ( 'NONE', ( #145 ), #199, .T. ) ;
#252 = AXIS2_PLACEMENT_3D ( 'NONE', #71, #69, #227 ) ;
#253 = DIRECTION ( 'NONE',  ( 0.000000000000000000, 0.000000000000000000, 1.000000000000000000 ) ) ;
#254 = DATE_AND_TIME ( #231, #91 ) ;
#255 = ORIENTED_EDGE ( 'NONE', *, *, #243, .F. ) ;
#256 = AXIS2_PLACEMENT_3D ( 'NONE', #218, #143, #244 ) ;
#257 = PERSON_AND_ORGANIZATION_ROLE ( 'design_owner' ) ;
#258 = PERSON_AND_ORGANIZATION ( #200, #165 ) ;
#259 = ORIENTED_EDGE ( 'NONE', *, *, #175, .T. ) ;
#260 = LINE ( 'NONE', #35, #173 ) ;
#261 = CIRCLE ( 'NONE', #206, 30.00000000000000000 ) ;
#262 = DIRECTION ( 'NONE',  ( -1.000000000000000000, 0.000000000000000000, 0.000000000000000000 ) ) ;
#263 = LINE ( 'NONE', #116, #273 ) ;
#264 = EDGE_CURVE ( 'NONE', #250, #78, #279, .T. ) ;
#265 = CARTESIAN_POINT ( 'NONE',  ( 0.000000000000000000, 0.000000000000000000, -30.00000000000000000 ) ) ;
#266 = AXIS2_PLACEMENT_3D ( 'NONE', #317, #220, #320 ) ;
#267 = CIRCLE ( 'NONE', #65, 32.50000000000000000 ) ;
#268 = DIRECTION ( 'NONE',  ( 0.000000000000000000, 0.000000000000000000, 1.000000000000000000 ) ) ;
#269 = DIRECTION ( 'NONE',  ( 0.000000000000000000, 0.000000000000000000, 1.000000000000000000 ) ) ;
#270 = UNCERTAINTY_MEASURE_WITH_UNIT (LENGTH_MEASURE( 1.000000000000000082E-05 ), #204, 'distance_accuracy_value', 'NONE');
#271 = LINE ( 'NONE', #203, #23 ) ;
#272 = CARTESIAN_POINT ( 'NONE',  ( -22.45000000000000284, 2.749332064085808099E-15, 20.00000000000000000 ) ) ;
#273 = VECTOR ( 'NONE', #172, 1000.000000000000000 ) ;
#274 = DIRECTION ( 'NONE',  ( 0.000000000000000000, 0.000000000000000000, 1.000000000000000000 ) ) ;
#275 = VERTEX_POINT ( 'NONE', #272 ) ;
#276 = EDGE_CURVE ( 'NONE', #316, #164, #296, .T. ) ;
#277 = AXIS2_PLACEMENT_3D ( 'NONE', #295, #269, #222 ) ;
#278 = PRODUCT_DEFINITION_SHAPE ( 'NONE', 'NONE',  #127 ) ;
#279 = CIRCLE ( 'NONE', #252, 30.00000000000000000 ) ;
#280 = APPROVAL ( #239, 'UNSPECIFIED' ) ;
#281 = ORIENTED_EDGE ( 'NONE', *, *, #51, .F. ) ;
#282 = APPROVAL_STATUS ( 'not_yet_approved' ) ;
#283 = EDGE_LOOP ( 'NONE', ( #286, #311 ) ) ;
#284 = APPROVAL_PERSON_ORGANIZATION ( #210, #166, #128 ) ;
#285 = PERSON_AND_ORGANIZATION_ROLE ( 'creator' ) ;
#286 = ORIENTED_EDGE ( 'NONE', *, *, #219, .T. ) ;
#287 = EDGE_CURVE ( 'NONE', #316, #98, #46, .T. ) ;
#288 = PERSON_AND_ORGANIZATION ( #200, #165 ) ;
#289 = ORIENTED_EDGE ( 'NONE', *, *, #302, .F. ) ;
#290 = VERTEX_POINT ( 'NONE', #177 ) ;
#291 = APPROVAL_PERSON_ORGANIZATION ( #258, #39, #105 ) ;
#292 = CIRCLE ( 'NONE', #174, 32.50000000000000000 ) ;
#293 = CARTESIAN_POINT ( 'NONE',  ( 0.000000000000000000, 0.000000000000000000, -30.00000000000000000 ) ) ;
#294 = LINE ( 'NONE', #198, #223 ) ;
#295 = CARTESIAN_POINT ( 'NONE',  ( 0.000000000000000000, 0.000000000000000000, 0.000000000000000000 ) ) ;
#296 = CIRCLE ( 'NONE', #124, 22.45000000000000284 ) ;
#297 = DIRECTION ( 'NONE',  ( 1.000000000000000000, 0.000000000000000000, 0.000000000000000000 ) ) ;
#298 = APPLICATION_CONTEXT ( 'configuration controlled 3d designs of mechanical parts and assemblies' ) ;
#299 = DIRECTION ( 'NONE',  ( -0.000000000000000000, -0.000000000000000000, 1.000000000000000000 ) ) ;
#300 = DIRECTION ( 'NONE',  ( -1.000000000000000000, 0.000000000000000000, 0.000000000000000000 ) ) ;
#301 = AXIS2_PLACEMENT_3D ( 'NONE', #241, #144, #40 ) ;
#302 = EDGE_CURVE ( 'NONE', #290, #135, #36, .T. ) ;
#303 = DIRECTION ( 'NONE',  ( -0.000000000000000000, -0.000000000000000000, 1.000000000000000000 ) ) ;
#304 = DESIGN_CONTEXT ( 'detailed design', #147, 'design' ) ;
#305 = CARTESIAN_POINT ( 'NONE',  ( 0.000000000000000000, 0.000000000000000000, 20.00000000000000000 ) ) ;
#306 = LOCAL_TIME ( 8, 19, 25.00000000000000000, #2 ) ;
#307 = APPROVAL_STATUS ( 'not_yet_approved' ) ;
#308 = DATE_AND_TIME ( #7, #73 ) ;
#309 = VERTEX_POINT ( 'NONE', #20 ) ;
#310 = MECHANICAL_CONTEXT ( 'NONE', #298, 'mechanical' ) ;
#311 = ORIENTED_EDGE ( 'NONE', *, *, #134, .T. ) ;
#312 = ADVANCED_FACE ( 'NONE', ( #154 ), #50, .F. ) ;
#313 = AXIS2_PLACEMENT_3D ( 'NONE', #119, #19, #178 ) ;
#314 = DIRECTION ( 'NONE',  ( 1.000000000000000000, 0.000000000000000000, 0.000000000000000000 ) ) ;
#315 = ORIENTED_EDGE ( 'NONE', *, *, #72, .F. ) ;
#316 = VERTEX_POINT ( 'NONE', #99 ) ;
#317 = CARTESIAN_POINT ( 'NONE',  ( 0.000000000000000000, 0.000000000000000000, 0.000000000000000000 ) ) ;
#318 = DIRECTION ( 'NONE',  ( -1.000000000000000000, 0.000000000000000000, -0.000000000000000000 ) ) ;
#319 = FACE_OUTER_BOUND ( 'NONE', #81, .T. ) ;
#320 = DIRECTION ( 'NONE',  ( 1.000000000000000000, 0.000000000000000000, 0.000000000000000000 ) ) ;
#321 = CC_DESIGN_APPROVAL ( #166, ( #41 ) ) ;
#322 = VECTOR ( 'NONE', #95, 1000.000000000000000 ) ;
#323 = CARTESIAN_POINT ( 'NONE',  ( 32.50000000000000000, 3.980102097228898626E-15, 20.00000000000000000 ) ) ;
#324 =( NAMED_UNIT ( * ) SI_UNIT ( $, .STERADIAN. ) SOLID_ANGLE_UNIT ( ) );
#325 = EDGE_CURVE ( 'NONE', #167, #232, #271, .T. ) ;
#326 = ORIENTED_EDGE ( 'NONE', *, *, #5, .T. ) ;
#327 = SECURITY_CLASSIFICATION ( '', '', #27 ) ;
#328 = CLOSED_SHELL ( 'NONE', ( #42, #120, #251, #100, #209, #29, #108, #63, #312 ) ) ;
#329 = DIRECTION ( 'NONE',  ( -0.000000000000000000, -0.000000000000000000, -1.000000000000000000 ) ) ;
ENDSEC;
END-ISO-10303-21;
