ISO-10303-21;
HEADER;
FILE_DESCRIPTION (( 'STEP AP203' ),
    '1' );
FILE_NAME ('R4-108.STEP',
    '2022-07-01T06:19:56',
    ( '' ),
    ( '' ),
    'SwSTEP 2.0',
    'SolidWorks 2022',
    '' );
FILE_SCHEMA (( 'CONFIG_CONTROL_DESIGN' ));
ENDSEC;

DATA;
#1 = CARTESIAN_POINT ( 'NONE',  ( 0.000000000000000000, 0.000000000000000000, -25.00000000000000000 ) ) ;
#2 = LINE ( 'NONE', #224, #40 ) ;
#3 = ORGANIZATION ( 'UNSPECIFIED', 'UNSPECIFIED', '' ) ;
#4 = EDGE_CURVE ( 'NONE', #75, #188, #180, .T. ) ;
#5 = FACE_OUTER_BOUND ( 'NONE', #46, .T. ) ;
#6 = CIRCLE ( 'NONE', #230, 35.00000000000000711 ) ;
#7 = CARTESIAN_POINT ( 'NONE',  ( 35.00000000000000711, 4.286263797015737285E-15, 0.000000000000000000 ) ) ;
#8 = APPROVAL_STATUS ( 'not_yet_approved' ) ;
#9 = AXIS2_PLACEMENT_3D ( 'NONE', #98, #56, #103 ) ;
#10 = UNCERTAINTY_MEASURE_WITH_UNIT (LENGTH_MEASURE( 1.000000000000000082E-05 ), #264, 'distance_accuracy_value', 'NONE');
#11 = ADVANCED_FACE ( 'NONE', ( #95 ), #273, .F. ) ;
#12 = PERSON_AND_ORGANIZATION ( #85, #3 ) ;
#13 = EDGE_CURVE ( 'NONE', #192, #42, #37, .T. ) ;
#14 = VECTOR ( 'NONE', #104, 1000.000000000000000 ) ;
#15 = ORIENTED_EDGE ( 'NONE', *, *, #86, .F. ) ;
#16 = EDGE_LOOP ( 'NONE', ( #208, #163 ) ) ;
#17 = ORIENTED_EDGE ( 'NONE', *, *, #293, .F. ) ;
#18 = LOCAL_TIME ( 8, 19, 56.00000000000000000, #187 ) ;
#19 = APPROVAL_STATUS ( 'not_yet_approved' ) ;
#20 = CARTESIAN_POINT ( 'NONE',  ( -28.35000000000000142, 3.471873675582745631E-15, -25.00000000000000000 ) ) ;
#21 = ADVANCED_FACE ( 'NONE', ( #243, #186 ), #144, .T. ) ;
#22 = APPLICATION_CONTEXT ( 'configuration controlled 3d designs of mechanical parts and assemblies' ) ;
#23 = PERSON_AND_ORGANIZATION ( #85, #3 ) ;
#24 = DIRECTION ( 'NONE',  ( 1.000000000000000000, 0.000000000000000000, 0.000000000000000000 ) ) ;
#25 = VERTEX_POINT ( 'NONE', #266 ) ;
#26 = PERSON_AND_ORGANIZATION ( #85, #3 ) ;
#27 = VERTEX_POINT ( 'NONE', #20 ) ;
#28 = CARTESIAN_POINT ( 'NONE',  ( 0.000000000000000000, 0.000000000000000000, -25.00100000000000122 ) ) ;
#29 = CIRCLE ( 'NONE', #308, 33.00000000000000000 ) ;
#30 = DIRECTION ( 'NONE',  ( 1.000000000000000000, 0.000000000000000000, 0.000000000000000000 ) ) ;
#31 = DIRECTION ( 'NONE',  ( 0.000000000000000000, 0.000000000000000000, -1.000000000000000000 ) ) ;
#32 = CARTESIAN_POINT ( 'NONE',  ( 35.00000000000000711, 4.286263797015737285E-15, 30.00000000000000000 ) ) ;
#33 = CC_DESIGN_APPROVAL ( #78, ( #244 ) ) ;
#34 = AXIS2_PLACEMENT_3D ( 'NONE', #99, #279, #302 ) ;
#35 = CARTESIAN_POINT ( 'NONE',  ( 35.00000000000000711, 4.286263797015737285E-15, 30.00000000000000000 ) ) ;
#36 = DIRECTION ( 'NONE',  ( 0.000000000000000000, 0.000000000000000000, 1.000000000000000000 ) ) ;
#37 = CIRCLE ( 'NONE', #241, 28.35000000000000142 ) ;
#38 = FACE_OUTER_BOUND ( 'NONE', #299, .T. ) ;
#39 = DATE_AND_TIME ( #119, #18 ) ;
#40 = VECTOR ( 'NONE', #147, 1000.000000000000000 ) ;
#41 = PERSON_AND_ORGANIZATION_ROLE ( 'creator' ) ;
#42 = VERTEX_POINT ( 'NONE', #115 ) ;
#43 = ORIENTED_EDGE ( 'NONE', *, *, #321, .F. ) ;
#44 = PERSON_AND_ORGANIZATION ( #85, #3 ) ;
#45 = CC_DESIGN_PERSON_AND_ORGANIZATION_ASSIGNMENT ( #327, #114, ( #141 ) ) ;
#46 = EDGE_LOOP ( 'NONE', ( #112, #211, #69, #189 ) ) ;
#47 = LOCAL_TIME ( 8, 19, 56.00000000000000000, #260 ) ;
#48 = APPROVAL_DATE_TIME ( #322, #78 ) ;
#49 = ORIENTED_EDGE ( 'NONE', *, *, #82, .T. ) ;
#50 = CIRCLE ( 'NONE', #314, 35.00000000000000711 ) ;
#51 = MANIFOLD_SOLID_BREP ( 'Extrusion3', #261 ) ;
#52 = APPROVAL_STATUS ( 'not_yet_approved' ) ;
#53 = CARTESIAN_POINT ( 'NONE',  ( 0.000000000000000000, 0.000000000000000000, -25.00100000000000122 ) ) ;
#54 = ADVANCED_FACE ( 'NONE', ( #176, #250 ), #197, .F. ) ;
#55 = CARTESIAN_POINT ( 'NONE',  ( -28.35000000000000142, 3.471873675582745631E-15, 30.00000000000000000 ) ) ;
#56 = DIRECTION ( 'NONE',  ( 0.000000000000000000, 0.000000000000000000, 1.000000000000000000 ) ) ;
#57 = DIRECTION ( 'NONE',  ( 1.000000000000000000, 0.000000000000000000, 0.000000000000000000 ) ) ;
#58 = CARTESIAN_POINT ( 'NONE',  ( 28.35000000000000142, 0.000000000000000000, -25.00000000000000000 ) ) ;
#59 = CARTESIAN_POINT ( 'NONE',  ( 0.000000000000000000, 0.000000000000000000, 30.00000000000000000 ) ) ;
#60 = VECTOR ( 'NONE', #231, 1000.000000000000000 ) ;
#61 = AXIS2_PLACEMENT_3D ( 'NONE', #315, #107, #284 ) ;
#62 = FACE_BOUND ( 'NONE', #215, .T. ) ;
#63 = CYLINDRICAL_SURFACE ( 'NONE', #74, 33.00000000000000000 ) ;
#64 = ADVANCED_FACE ( 'NONE', ( #80 ), #252, .F. ) ;
#65 = CARTESIAN_POINT ( 'NONE',  ( -33.00000000000000000, 4.041334437186266200E-15, -25.00000000000000000 ) ) ;
#66 = PERSON_AND_ORGANIZATION ( #85, #3 ) ;
#67 = DIRECTION ( 'NONE',  ( -1.000000000000000000, 0.000000000000000000, -0.000000000000000000 ) ) ;
#68 = EDGE_CURVE ( 'NONE', #165, #42, #2, .T. ) ;
#69 = ORIENTED_EDGE ( 'NONE', *, *, #183, .T. ) ;
#70 = VERTEX_POINT ( 'NONE', #201 ) ;
#71 = LOCAL_TIME ( 8, 19, 56.00000000000000000, #272 ) ;
#72 = ORIENTED_EDGE ( 'NONE', *, *, #228, .F. ) ;
#73 = AXIS2_PLACEMENT_3D ( 'NONE', #255, #145, #171 ) ;
#74 = AXIS2_PLACEMENT_3D ( 'NONE', #157, #181, #89 ) ;
#75 = VERTEX_POINT ( 'NONE', #81 ) ;
#76 = DIRECTION ( 'NONE',  ( 0.000000000000000000, 0.000000000000000000, 1.000000000000000000 ) ) ;
#77 = DIRECTION ( 'NONE',  ( -0.000000000000000000, -0.000000000000000000, 1.000000000000000000 ) ) ;
#78 = APPROVAL ( #52, 'UNSPECIFIED' ) ;
#79 = FACE_OUTER_BOUND ( 'NONE', #169, .T. ) ;
#80 = FACE_OUTER_BOUND ( 'NONE', #318, .T. ) ;
#81 = CARTESIAN_POINT ( 'NONE',  ( -33.00000000000000000, 4.041334437186266200E-15, 0.000000000000000000 ) ) ;
#82 = EDGE_CURVE ( 'NONE', #93, #136, #221, .T. ) ;
#83 = DIRECTION ( 'NONE',  ( 1.000000000000000000, 0.000000000000000000, 0.000000000000000000 ) ) ;
#84 = CARTESIAN_POINT ( 'NONE',  ( 0.000000000000000000, 0.000000000000000000, 30.00000000000000000 ) ) ;
#85 = PERSON ( 'UNSPECIFIED', 'UNSPECIFIED', 'UNSPECIFIED', ('UNSPECIFIED'), ('UNSPECIFIED'), ('UNSPECIFIED') ) ;
#86 = EDGE_CURVE ( 'NONE', #27, #192, #300, .T. ) ;
#87 = DIRECTION ( 'NONE',  ( 0.000000000000000000, 0.000000000000000000, 1.000000000000000000 ) ) ;
#88 = DIRECTION ( 'NONE',  ( 1.000000000000000000, 0.000000000000000000, 0.000000000000000000 ) ) ;
#89 = DIRECTION ( 'NONE',  ( 1.000000000000000000, 0.000000000000000000, 0.000000000000000000 ) ) ;
#90 = DATE_AND_TIME ( #309, #47 ) ;
#91 = ORIENTED_EDGE ( 'NONE', *, *, #68, .F. ) ;
#92 = ORIENTED_EDGE ( 'NONE', *, *, #316, .F. ) ;
#93 = VERTEX_POINT ( 'NONE', #130 ) ;
#94 = DATE_TIME_ROLE ( 'classification_date' ) ;
#95 = FACE_OUTER_BOUND ( 'NONE', #271, .T. ) ;
#96 = ORIENTED_EDGE ( 'NONE', *, *, #82, .F. ) ;
#97 = AXIS2_PLACEMENT_3D ( 'NONE', #132, #313, #88 ) ;
#98 = CARTESIAN_POINT ( 'NONE',  ( 0.000000000000000000, 0.000000000000000000, 0.000000000000000000 ) ) ;
#99 = CARTESIAN_POINT ( 'NONE',  ( 0.000000000000000000, 0.000000000000000000, -25.00000000000000000 ) ) ;
#100 = PRODUCT_DEFINITION_SHAPE ( 'NONE', 'NONE',  #111 ) ;
#101 = AXIS2_PLACEMENT_3D ( 'NONE', #249, #289, #67 ) ;
#102 = CARTESIAN_POINT ( 'NONE',  ( 0.000000000000000000, 0.000000000000000000, 0.000000000000000000 ) ) ;
#103 = DIRECTION ( 'NONE',  ( 1.000000000000000000, 0.000000000000000000, -0.000000000000000000 ) ) ;
#104 = DIRECTION ( 'NONE',  ( -0.000000000000000000, -0.000000000000000000, 1.000000000000000000 ) ) ;
#105 = APPROVAL_ROLE ( '' ) ;
#106 = APPLICATION_PROTOCOL_DEFINITION ( 'international standard', 'config_control_design', 1994, #251 ) ;
#107 = DIRECTION ( 'NONE',  ( -0.000000000000000000, -0.000000000000000000, 1.000000000000000000 ) ) ;
#108 = APPROVAL_PERSON_ORGANIZATION ( #242, #212, #113 ) ;
#109 = MECHANICAL_CONTEXT ( 'NONE', #251, 'mechanical' ) ;
#110 = DATE_AND_TIME ( #185, #71 ) ;
#111 = PRODUCT_DEFINITION ( 'UNKNOWN', '', #141, #155 ) ;
#112 = ORIENTED_EDGE ( 'NONE', *, *, #280, .F. ) ;
#113 = APPROVAL_ROLE ( '' ) ;
#114 = PERSON_AND_ORGANIZATION_ROLE ( 'design_supplier' ) ;
#115 = CARTESIAN_POINT ( 'NONE',  ( 28.35000000000000142, 0.000000000000000000, 30.00000000000000000 ) ) ;
#116 = CALENDAR_DATE ( 2022, 1, 7 ) ;
#117 = DIRECTION ( 'NONE',  ( 0.000000000000000000, 0.000000000000000000, 1.000000000000000000 ) ) ;
#118 = ORIENTED_EDGE ( 'NONE', *, *, #321, .T. ) ;
#119 = CALENDAR_DATE ( 2022, 1, 7 ) ;
#120 = DIRECTION ( 'NONE',  ( -0.000000000000000000, -0.000000000000000000, 1.000000000000000000 ) ) ;
#121 = PRODUCT ( 'R4-108', 'R4-108', '', ( #109 ) ) ;
#122 = CARTESIAN_POINT ( 'NONE',  ( 0.000000000000000000, 0.000000000000000000, -25.00000000000000000 ) ) ;
#123 = VECTOR ( 'NONE', #223, 1000.000000000000000 ) ;
#124 = ADVANCED_FACE ( 'NONE', ( #79 ), #203, .T. ) ;
#125 = CARTESIAN_POINT ( 'NONE',  ( 33.00000000000000000, 0.000000000000000000, -25.00000000000000000 ) ) ;
#126 = DIRECTION ( 'NONE',  ( -0.000000000000000000, -0.000000000000000000, 1.000000000000000000 ) ) ;
#127 = CC_DESIGN_APPROVAL ( #173, ( #111 ) ) ;
#128 = DIRECTION ( 'NONE',  ( -0.000000000000000000, -0.000000000000000000, -1.000000000000000000 ) ) ;
#129 = EDGE_CURVE ( 'NONE', #165, #27, #265, .T. ) ;
#130 = CARTESIAN_POINT ( 'NONE',  ( -35.00000000000000711, 0.000000000000000000, 0.000000000000000000 ) ) ;
#131 = CARTESIAN_POINT ( 'NONE',  ( 0.000000000000000000, 0.000000000000000000, 0.000000000000000000 ) ) ;
#132 = CARTESIAN_POINT ( 'NONE',  ( 0.000000000000000000, 0.000000000000000000, 30.00000000000000000 ) ) ;
#133 = EDGE_CURVE ( 'NONE', #42, #192, #162, .T. ) ;
#134 = CC_DESIGN_PERSON_AND_ORGANIZATION_ASSIGNMENT ( #12, #283, ( #121 ) ) ;
#135 = AXIS2_PLACEMENT_3D ( 'NONE', #122, #222, #174 ) ;
#136 = VERTEX_POINT ( 'NONE', #7 ) ;
#137 = EDGE_LOOP ( 'NONE', ( #96, #326 ) ) ;
#138 = ORIENTED_EDGE ( 'NONE', *, *, #129, .T. ) ;
#139 = APPROVAL_DATE_TIME ( #90, #173 ) ;
#140 = DIRECTION ( 'NONE',  ( -0.000000000000000000, -0.000000000000000000, -1.000000000000000000 ) ) ;
#141 = PRODUCT_DEFINITION_FORMATION_WITH_SPECIFIED_SOURCE ( 'ANY', '', #121, .NOT_KNOWN. ) ;
#142 = EDGE_LOOP ( 'NONE', ( #72, #237 ) ) ;
#143 = ORIENTED_EDGE ( 'NONE', *, *, #86, .T. ) ;
#144 = PLANE ( 'NONE',  #101 ) ;
#145 = DIRECTION ( 'NONE',  ( -0.000000000000000000, -0.000000000000000000, -1.000000000000000000 ) ) ;
#146 = EDGE_CURVE ( 'NONE', #195, #136, #226, .T. ) ;
#147 = DIRECTION ( 'NONE',  ( -0.000000000000000000, -0.000000000000000000, 1.000000000000000000 ) ) ;
#148 = CYLINDRICAL_SURFACE ( 'NONE', #151, 33.00000000000000000 ) ;
#149 = DIRECTION ( 'NONE',  ( -1.000000000000000000, 0.000000000000000000, 0.000000000000000000 ) ) ;
#150 = DIRECTION ( 'NONE',  ( -0.000000000000000000, -0.000000000000000000, -1.000000000000000000 ) ) ;
#151 = AXIS2_PLACEMENT_3D ( 'NONE', #254, #126, #202 ) ;
#152 = VECTOR ( 'NONE', #229, 1000.000000000000000 ) ;
#153 = DIRECTION ( 'NONE',  ( 1.000000000000000000, 0.000000000000000000, -0.000000000000000000 ) ) ;
#154 =( NAMED_UNIT ( * ) SI_UNIT ( $, .STERADIAN. ) SOLID_ANGLE_UNIT ( ) );
#155 = DESIGN_CONTEXT ( 'detailed design', #22, 'design' ) ;
#156 = CC_DESIGN_PERSON_AND_ORGANIZATION_ASSIGNMENT ( #44, #317, ( #141 ) ) ;
#157 = CARTESIAN_POINT ( 'NONE',  ( 0.000000000000000000, 0.000000000000000000, -25.00000000000000000 ) ) ;
#158 = AXIS2_PLACEMENT_3D ( 'NONE', #131, #87, #263 ) ;
#159 = FACE_OUTER_BOUND ( 'NONE', #328, .T. ) ;
#160 = CARTESIAN_POINT ( 'NONE',  ( 0.000000000000000000, 0.000000000000000000, 0.000000000000000000 ) ) ;
#161 = COORDINATED_UNIVERSAL_TIME_OFFSET ( 1, 0, .AHEAD. ) ;
#162 = CIRCLE ( 'NONE', #168, 28.35000000000000142 ) ;
#163 = ORIENTED_EDGE ( 'NONE', *, *, #194, .T. ) ;
#164 = ORIENTED_EDGE ( 'NONE', *, *, #4, .T. ) ;
#165 = VERTEX_POINT ( 'NONE', #58 ) ;
#166 = ORIENTED_EDGE ( 'NONE', *, *, #13, .T. ) ;
#167 = CC_DESIGN_SECURITY_CLASSIFICATION ( #244, ( #141 ) ) ;
#168 = AXIS2_PLACEMENT_3D ( 'NONE', #275, #198, #30 ) ;
#169 = EDGE_LOOP ( 'NONE', ( #17, #245, #290, #43 ) ) ;
#170 = ORIENTED_EDGE ( 'NONE', *, *, #270, .F. ) ;
#171 = DIRECTION ( 'NONE',  ( -1.000000000000000000, 0.000000000000000000, 0.000000000000000000 ) ) ;
#172 = CARTESIAN_POINT ( 'NONE',  ( 0.000000000000000000, 0.000000000000000000, 0.000000000000000000 ) ) ;
#173 = APPROVAL ( #8, 'UNSPECIFIED' ) ;
#174 = DIRECTION ( 'NONE',  ( -1.000000000000000000, 0.000000000000000000, 0.000000000000000000 ) ) ;
#175 = CYLINDRICAL_SURFACE ( 'NONE', #196, 35.00000000000000711 ) ;
#176 = FACE_OUTER_BOUND ( 'NONE', #137, .T. ) ;
#177 = DIRECTION ( 'NONE',  ( 1.000000000000000000, 0.000000000000000000, 0.000000000000000000 ) ) ;
#178 = CC_DESIGN_PERSON_AND_ORGANIZATION_ASSIGNMENT ( #26, #41, ( #111 ) ) ;
#179 = PLANE ( 'NONE',  #287 ) ;
#180 = CIRCLE ( 'NONE', #199, 33.00000000000000000 ) ;
#181 = DIRECTION ( 'NONE',  ( -0.000000000000000000, -0.000000000000000000, 1.000000000000000000 ) ) ;
#182 = CARTESIAN_POINT ( 'NONE',  ( 0.000000000000000000, 0.000000000000000000, 30.00000000000000000 ) ) ;
#183 = EDGE_CURVE ( 'NONE', #70, #188, #306, .T. ) ;
#184 = AXIS2_PLACEMENT_3D ( 'NONE', #53, #120, #24 ) ;
#185 = CALENDAR_DATE ( 2022, 1, 7 ) ;
#186 = FACE_OUTER_BOUND ( 'NONE', #16, .T. ) ;
#187 = COORDINATED_UNIVERSAL_TIME_OFFSET ( 1, 0, .AHEAD. ) ;
#188 = VERTEX_POINT ( 'NONE', #227 ) ;
#189 = ORIENTED_EDGE ( 'NONE', *, *, #228, .T. ) ;
#190 = ORIENTED_EDGE ( 'NONE', *, *, #280, .T. ) ;
#191 = CALENDAR_DATE ( 2022, 1, 7 ) ;
#192 = VERTEX_POINT ( 'NONE', #55 ) ;
#193 = AXIS2_PLACEMENT_3D ( 'NONE', #1, #31, #149 ) ;
#194 = EDGE_CURVE ( 'NONE', #320, #70, #258, .T. ) ;
#195 = VERTEX_POINT ( 'NONE', #32 ) ;
#196 = AXIS2_PLACEMENT_3D ( 'NONE', #59, #150, #257 ) ;
#197 = PLANE ( 'NONE',  #9 ) ;
#198 = DIRECTION ( 'NONE',  ( 0.000000000000000000, 0.000000000000000000, 1.000000000000000000 ) ) ;
#199 = AXIS2_PLACEMENT_3D ( 'NONE', #296, #140, #323 ) ;
#200 = LOCAL_TIME ( 8, 19, 56.00000000000000000, #248 ) ;
#201 = CARTESIAN_POINT ( 'NONE',  ( 33.00000000000000000, 0.000000000000000000, -25.00000000000000000 ) ) ;
#202 = DIRECTION ( 'NONE',  ( 1.000000000000000000, 0.000000000000000000, 0.000000000000000000 ) ) ;
#203 = CYLINDRICAL_SURFACE ( 'NONE', #73, 35.00000000000000711 ) ;
#204 = LINE ( 'NONE', #65, #152 ) ;
#205 = AXIS2_PLACEMENT_3D ( 'NONE', #102, #76, #329 ) ;
#206 = CIRCLE ( 'NONE', #97, 35.00000000000000711 ) ;
#207 = PERSON_AND_ORGANIZATION ( #85, #3 ) ;
#208 = ORIENTED_EDGE ( 'NONE', *, *, #218, .T. ) ;
#209 = ORIENTED_EDGE ( 'NONE', *, *, #270, .T. ) ;
#210 = DATE_TIME_ROLE ( 'creation_date' ) ;
#211 = ORIENTED_EDGE ( 'NONE', *, *, #218, .F. ) ;
#212 = APPROVAL ( #19, 'UNSPECIFIED' ) ;
#213 = ORIENTED_EDGE ( 'NONE', *, *, #133, .F. ) ;
#214 = APPROVAL_ROLE ( '' ) ;
#215 = EDGE_LOOP ( 'NONE', ( #213, #239 ) ) ;
#216 = DIRECTION ( 'NONE',  ( 1.000000000000000000, 0.000000000000000000, 0.000000000000000000 ) ) ;
#217 = ORIENTED_EDGE ( 'NONE', *, *, #293, .T. ) ;
#218 = EDGE_CURVE ( 'NONE', #70, #320, #234, .T. ) ;
#219 = DATE_AND_TIME ( #116, #297 ) ;
#220 = ORIENTED_EDGE ( 'NONE', *, *, #316, .T. ) ;
#221 = CIRCLE ( 'NONE', #205, 35.00000000000000711 ) ;
#222 = DIRECTION ( 'NONE',  ( -0.000000000000000000, -0.000000000000000000, 1.000000000000000000 ) ) ;
#223 = DIRECTION ( 'NONE',  ( -0.000000000000000000, -0.000000000000000000, 1.000000000000000000 ) ) ;
#224 = CARTESIAN_POINT ( 'NONE',  ( 28.35000000000000142, 0.000000000000000000, -25.00100000000000122 ) ) ;
#225 = APPROVAL_PERSON_ORGANIZATION ( #23, #78, #214 ) ;
#226 = LINE ( 'NONE', #35, #298 ) ;
#227 = CARTESIAN_POINT ( 'NONE',  ( 33.00000000000000000, 0.000000000000000000, 0.000000000000000000 ) ) ;
#228 = EDGE_CURVE ( 'NONE', #188, #75, #29, .T. ) ;
#229 = DIRECTION ( 'NONE',  ( -0.000000000000000000, -0.000000000000000000, 1.000000000000000000 ) ) ;
#230 = AXIS2_PLACEMENT_3D ( 'NONE', #84, #36, #177 ) ;
#231 = DIRECTION ( 'NONE',  ( -0.000000000000000000, -0.000000000000000000, -1.000000000000000000 ) ) ;
#232 =( NAMED_UNIT ( * ) PLANE_ANGLE_UNIT ( ) SI_UNIT ( $, .RADIAN. ) );
#233 = APPLICATION_PROTOCOL_DEFINITION ( 'international standard', 'config_control_design', 1994, #22 ) ;
#234 = CIRCLE ( 'NONE', #34, 33.00000000000000000 ) ;
#235 = ORIENTED_EDGE ( 'NONE', *, *, #183, .F. ) ;
#236 = CIRCLE ( 'NONE', #61, 28.35000000000000142 ) ;
#237 = ORIENTED_EDGE ( 'NONE', *, *, #4, .F. ) ;
#238 = ADVANCED_FACE ( 'NONE', ( #5 ), #148, .T. ) ;
#239 = ORIENTED_EDGE ( 'NONE', *, *, #13, .F. ) ;
#240 = ORIENTED_EDGE ( 'NONE', *, *, #133, .T. ) ;
#241 = AXIS2_PLACEMENT_3D ( 'NONE', #268, #117, #216 ) ;
#242 = PERSON_AND_ORGANIZATION ( #85, #3 ) ;
#243 = FACE_BOUND ( 'NONE', #267, .T. ) ;
#244 = SECURITY_CLASSIFICATION ( '', '', #291 ) ;
#245 = ORIENTED_EDGE ( 'NONE', *, *, #146, .T. ) ;
#246 = ADVANCED_FACE ( 'NONE', ( #305 ), #175, .T. ) ;
#247 = ORIENTED_EDGE ( 'NONE', *, *, #129, .F. ) ;
#248 = COORDINATED_UNIVERSAL_TIME_OFFSET ( 1, 0, .AHEAD. ) ;
#249 = CARTESIAN_POINT ( 'NONE',  ( 0.000000000000000000, 0.000000000000000000, -25.00000000000000000 ) ) ;
#250 = FACE_BOUND ( 'NONE', #142, .T. ) ;
#251 = APPLICATION_CONTEXT ( 'configuration controlled 3d designs of mechanical parts and assemblies' ) ;
#252 = CYLINDRICAL_SURFACE ( 'NONE', #282, 28.35000000000000142 ) ;
#253 = CC_DESIGN_DATE_AND_TIME_ASSIGNMENT ( #39, #94, ( #244 ) ) ;
#254 = CARTESIAN_POINT ( 'NONE',  ( 0.000000000000000000, 0.000000000000000000, -25.00000000000000000 ) ) ;
#255 = CARTESIAN_POINT ( 'NONE',  ( 0.000000000000000000, 0.000000000000000000, 30.00000000000000000 ) ) ;
#256 = CC_DESIGN_APPROVAL ( #212, ( #141 ) ) ;
#257 = DIRECTION ( 'NONE',  ( -1.000000000000000000, 0.000000000000000000, 0.000000000000000000 ) ) ;
#258 = CIRCLE ( 'NONE', #193, 33.00000000000000000 ) ;
#259 = ADVANCED_FACE ( 'NONE', ( #159 ), #63, .T. ) ;
#260 = COORDINATED_UNIVERSAL_TIME_OFFSET ( 1, 0, .AHEAD. ) ;
#261 = CLOSED_SHELL ( 'NONE', ( #11, #259, #124, #54, #246, #301, #238, #21, #64 ) ) ;
#262 = LINE ( 'NONE', #307, #60 ) ;
#263 = DIRECTION ( 'NONE',  ( 1.000000000000000000, 0.000000000000000000, 0.000000000000000000 ) ) ;
#264 =( LENGTH_UNIT ( ) NAMED_UNIT ( * ) SI_UNIT ( .MILLI., .METRE. ) );
#265 = CIRCLE ( 'NONE', #135, 28.35000000000000142 ) ;
#266 = CARTESIAN_POINT ( 'NONE',  ( -35.00000000000000711, 0.000000000000000000, 30.00000000000000000 ) ) ;
#267 = EDGE_LOOP ( 'NONE', ( #138, #209 ) ) ;
#268 = CARTESIAN_POINT ( 'NONE',  ( 0.000000000000000000, 0.000000000000000000, 30.00000000000000000 ) ) ;
#269 = APPROVAL_DATE_TIME ( #219, #212 ) ;
#270 = EDGE_CURVE ( 'NONE', #27, #165, #236, .T. ) ;
#271 = EDGE_LOOP ( 'NONE', ( #170, #143, #166, #91 ) ) ;
#272 = COORDINATED_UNIVERSAL_TIME_OFFSET ( 1, 0, .AHEAD. ) ;
#273 = CYLINDRICAL_SURFACE ( 'NONE', #184, 28.35000000000000142 ) ;
#274 = ORIENTED_EDGE ( 'NONE', *, *, #68, .T. ) ;
#275 = CARTESIAN_POINT ( 'NONE',  ( 0.000000000000000000, 0.000000000000000000, 30.00000000000000000 ) ) ;
#276 = CC_DESIGN_DATE_AND_TIME_ASSIGNMENT ( #110, #210, ( #111 ) ) ;
#277 = CARTESIAN_POINT ( 'NONE',  ( -28.35000000000000142, 3.471873675582745631E-15, -25.00100000000000122 ) ) ;
#278 = DIRECTION ( 'NONE',  ( -0.000000000000000000, -0.000000000000000000, -1.000000000000000000 ) ) ;
#279 = DIRECTION ( 'NONE',  ( 0.000000000000000000, 0.000000000000000000, -1.000000000000000000 ) ) ;
#280 = EDGE_CURVE ( 'NONE', #320, #75, #204, .T. ) ;
#281 = DIRECTION ( 'NONE',  ( 0.000000000000000000, 0.000000000000000000, 1.000000000000000000 ) ) ;
#282 = AXIS2_PLACEMENT_3D ( 'NONE', #28, #77, #303 ) ;
#283 = PERSON_AND_ORGANIZATION_ROLE ( 'design_owner' ) ;
#284 = DIRECTION ( 'NONE',  ( -1.000000000000000000, 0.000000000000000000, 0.000000000000000000 ) ) ;
#285 =( GEOMETRIC_REPRESENTATION_CONTEXT ( 3 ) GLOBAL_UNCERTAINTY_ASSIGNED_CONTEXT ( ( #10 ) ) GLOBAL_UNIT_ASSIGNED_CONTEXT ( ( #264, #232, #154 ) ) REPRESENTATION_CONTEXT ( 'NONE', 'WORKASPACE' ) );
#286 = PRODUCT_RELATED_PRODUCT_CATEGORY ( 'detail', '', ( #121 ) ) ;
#287 = AXIS2_PLACEMENT_3D ( 'NONE', #182, #288, #153 ) ;
#288 = DIRECTION ( 'NONE',  ( 0.000000000000000000, 0.000000000000000000, 1.000000000000000000 ) ) ;
#289 = DIRECTION ( 'NONE',  ( 0.000000000000000000, 0.000000000000000000, -1.000000000000000000 ) ) ;
#290 = ORIENTED_EDGE ( 'NONE', *, *, #304, .T. ) ;
#291 = SECURITY_CLASSIFICATION_LEVEL ( 'unclassified' ) ;
#292 = ORIENTED_EDGE ( 'NONE', *, *, #146, .F. ) ;
#293 = EDGE_CURVE ( 'NONE', #195, #25, #206, .T. ) ;
#294 = ORIENTED_EDGE ( 'NONE', *, *, #194, .F. ) ;
#295 = SHAPE_DEFINITION_REPRESENTATION ( #100, #324 ) ;
#296 = CARTESIAN_POINT ( 'NONE',  ( 0.000000000000000000, 0.000000000000000000, 0.000000000000000000 ) ) ;
#297 = LOCAL_TIME ( 8, 19, 56.00000000000000000, #161 ) ;
#298 = VECTOR ( 'NONE', #278, 1000.000000000000000 ) ;
#299 = EDGE_LOOP ( 'NONE', ( #220, #217 ) ) ;
#300 = LINE ( 'NONE', #277, #14 ) ;
#301 = ADVANCED_FACE ( 'NONE', ( #62, #38 ), #179, .T. ) ;
#302 = DIRECTION ( 'NONE',  ( -1.000000000000000000, 0.000000000000000000, 0.000000000000000000 ) ) ;
#303 = DIRECTION ( 'NONE',  ( 1.000000000000000000, 0.000000000000000000, 0.000000000000000000 ) ) ;
#304 = EDGE_CURVE ( 'NONE', #136, #93, #50, .T. ) ;
#305 = FACE_OUTER_BOUND ( 'NONE', #325, .T. ) ;
#306 = LINE ( 'NONE', #125, #123 ) ;
#307 = CARTESIAN_POINT ( 'NONE',  ( -35.00000000000000711, 0.000000000000000000, 30.00000000000000000 ) ) ;
#308 = AXIS2_PLACEMENT_3D ( 'NONE', #172, #128, #57 ) ;
#309 = CALENDAR_DATE ( 2022, 1, 7 ) ;
#310 = CC_DESIGN_PERSON_AND_ORGANIZATION_ASSIGNMENT ( #66, #319, ( #244 ) ) ;
#311 = CARTESIAN_POINT ( 'NONE',  ( -33.00000000000000000, 4.041334437186266200E-15, -25.00000000000000000 ) ) ;
#312 = APPROVAL_PERSON_ORGANIZATION ( #207, #173, #105 ) ;
#313 = DIRECTION ( 'NONE',  ( 0.000000000000000000, 0.000000000000000000, 1.000000000000000000 ) ) ;
#314 = AXIS2_PLACEMENT_3D ( 'NONE', #160, #281, #83 ) ;
#315 = CARTESIAN_POINT ( 'NONE',  ( 0.000000000000000000, 0.000000000000000000, -25.00000000000000000 ) ) ;
#316 = EDGE_CURVE ( 'NONE', #25, #195, #6, .T. ) ;
#317 = PERSON_AND_ORGANIZATION_ROLE ( 'creator' ) ;
#318 = EDGE_LOOP ( 'NONE', ( #15, #247, #274, #240 ) ) ;
#319 = PERSON_AND_ORGANIZATION_ROLE ( 'classification_officer' ) ;
#320 = VERTEX_POINT ( 'NONE', #311 ) ;
#321 = EDGE_CURVE ( 'NONE', #25, #93, #262, .T. ) ;
#322 = DATE_AND_TIME ( #191, #200 ) ;
#323 = DIRECTION ( 'NONE',  ( 1.000000000000000000, 0.000000000000000000, 0.000000000000000000 ) ) ;
#324 = ADVANCED_BREP_SHAPE_REPRESENTATION ( 'R4-108', ( #51, #158 ), #285 ) ;
#325 = EDGE_LOOP ( 'NONE', ( #292, #92, #118, #49 ) ) ;
#326 = ORIENTED_EDGE ( 'NONE', *, *, #304, .F. ) ;
#327 = PERSON_AND_ORGANIZATION ( #85, #3 ) ;
#328 = EDGE_LOOP ( 'NONE', ( #294, #190, #164, #235 ) ) ;
#329 = DIRECTION ( 'NONE',  ( 1.000000000000000000, 0.000000000000000000, 0.000000000000000000 ) ) ;
ENDSEC;
END-ISO-10303-21;
