ISO-10303-21;
HEADER;
FILE_DESCRIPTION (( 'STEP AP203' ),
    '1' );
FILE_NAME ('R4-109.STEP',
    '2022-07-01T06:20:25',
    ( '' ),
    ( '' ),
    'SwSTEP 2.0',
    'SolidWorks 2022',
    '' );
FILE_SCHEMA (( 'CONFIG_CONTROL_DESIGN' ));
ENDSEC;

DATA;
#1 = ORIENTED_EDGE ( 'NONE', *, *, #311, .T. ) ;
#2 = APPROVAL_ROLE ( '' ) ;
#3 = DIRECTION ( 'NONE',  ( 1.000000000000000000, 0.000000000000000000, 0.000000000000000000 ) ) ;
#4 = ADVANCED_FACE ( 'NONE', ( #157, #231 ), #47, .F. ) ;
#5 = AXIS2_PLACEMENT_3D ( 'NONE', #170, #268, #304 ) ;
#6 = CARTESIAN_POINT ( 'NONE',  ( 0.000000000000000000, 0.000000000000000000, 30.00000000000000000 ) ) ;
#7 = PERSON_AND_ORGANIZATION ( #201, #271 ) ;
#8 = DIRECTION ( 'NONE',  ( 1.000000000000000000, 0.000000000000000000, 0.000000000000000000 ) ) ;
#9 = PERSON_AND_ORGANIZATION ( #201, #271 ) ;
#10 = PRODUCT ( 'R4-109', 'R4-109', '', ( #92 ) ) ;
#11 = CARTESIAN_POINT ( 'NONE',  ( -41.00000000000000000, 5.021051876504148963E-15, 0.000000000000000000 ) ) ;
#12 = PERSON_AND_ORGANIZATION ( #201, #271 ) ;
#13 = APPROVAL ( #140, 'UNSPECIFIED' ) ;
#14 = DIRECTION ( 'NONE',  ( 1.000000000000000000, 0.000000000000000000, 0.000000000000000000 ) ) ;
#15 = AXIS2_PLACEMENT_3D ( 'NONE', #229, #98, #205 ) ;
#16 = AXIS2_PLACEMENT_3D ( 'NONE', #33, #162, #287 ) ;
#17 = CARTESIAN_POINT ( 'NONE',  ( 45.00000000000000711, 5.510910596163090344E-15, 30.00000000000000000 ) ) ;
#18 =( NAMED_UNIT ( * ) PLANE_ANGLE_UNIT ( ) SI_UNIT ( $, .RADIAN. ) );
#19 = EDGE_CURVE ( 'NONE', #101, #53, #224, .T. ) ;
#20 = ORIENTED_EDGE ( 'NONE', *, *, #177, .F. ) ;
#21 = LOCAL_TIME ( 8, 20, 25.00000000000000000, #296 ) ;
#22 = CARTESIAN_POINT ( 'NONE',  ( 0.000000000000000000, 0.000000000000000000, -40.00000000000000000 ) ) ;
#23 = PERSON_AND_ORGANIZATION ( #201, #271 ) ;
#24 = VERTEX_POINT ( 'NONE', #300 ) ;
#25 = ORIENTED_EDGE ( 'NONE', *, *, #32, .T. ) ;
#26 = ORIENTED_EDGE ( 'NONE', *, *, #67, .T. ) ;
#27 = ORIENTED_EDGE ( 'NONE', *, *, #74, .T. ) ;
#28 = ORIENTED_EDGE ( 'NONE', *, *, #177, .T. ) ;
#29 = ORIENTED_EDGE ( 'NONE', *, *, #230, .T. ) ;
#30 = DESIGN_CONTEXT ( 'detailed design', #145, 'design' ) ;
#31 = CARTESIAN_POINT ( 'NONE',  ( 0.000000000000000000, 0.000000000000000000, 0.000000000000000000 ) ) ;
#32 = EDGE_CURVE ( 'NONE', #301, #78, #72, .T. ) ;
#33 = CARTESIAN_POINT ( 'NONE',  ( 0.000000000000000000, 0.000000000000000000, -40.00100000000001188 ) ) ;
#34 = APPROVAL_PERSON_ORGANIZATION ( #12, #294, #2 ) ;
#35 = DIRECTION ( 'NONE',  ( -0.000000000000000000, -0.000000000000000000, 1.000000000000000000 ) ) ;
#36 = CYLINDRICAL_SURFACE ( 'NONE', #183, 41.00000000000000000 ) ;
#37 = CARTESIAN_POINT ( 'NONE',  ( 0.000000000000000000, 0.000000000000000000, 30.00000000000000000 ) ) ;
#38 = PERSON_AND_ORGANIZATION_ROLE ( 'classification_officer' ) ;
#39 = DIRECTION ( 'NONE',  ( 0.000000000000000000, 0.000000000000000000, -1.000000000000000000 ) ) ;
#40 = CARTESIAN_POINT ( 'NONE',  ( -41.00000000000000000, 5.021051876504148963E-15, -40.00000000000000000 ) ) ;
#41 = EDGE_LOOP ( 'NONE', ( #259, #27 ) ) ;
#42 = EDGE_CURVE ( 'NONE', #276, #71, #253, .T. ) ;
#43 = PERSON_AND_ORGANIZATION_ROLE ( 'design_owner' ) ;
#44 = CIRCLE ( 'NONE', #233, 36.14999999999999858 ) ;
#45 = AXIS2_PLACEMENT_3D ( 'NONE', #172, #290, #321 ) ;
#46 = FACE_OUTER_BOUND ( 'NONE', #41, .T. ) ;
#47 = PLANE ( 'NONE',  #306 ) ;
#48 = EDGE_LOOP ( 'NONE', ( #326, #208 ) ) ;
#49 = AXIS2_PLACEMENT_3D ( 'NONE', #176, #95, #244 ) ;
#50 = APPROVAL_PERSON_ORGANIZATION ( #9, #13, #188 ) ;
#51 = EDGE_LOOP ( 'NONE', ( #248, #297 ) ) ;
#52 = EDGE_CURVE ( 'NONE', #65, #301, #292, .T. ) ;
#53 = VERTEX_POINT ( 'NONE', #217 ) ;
#54 = DIRECTION ( 'NONE',  ( 0.000000000000000000, 0.000000000000000000, 1.000000000000000000 ) ) ;
#55 = DIRECTION ( 'NONE',  ( -1.000000000000000000, 0.000000000000000000, 0.000000000000000000 ) ) ;
#56 = CC_DESIGN_DATE_AND_TIME_ASSIGNMENT ( #163, #269, ( #329 ) ) ;
#57 = CYLINDRICAL_SURFACE ( 'NONE', #16, 36.14999999999999858 ) ;
#58 = CALENDAR_DATE ( 2022, 1, 7 ) ;
#59 = LINE ( 'NONE', #284, #238 ) ;
#60 = CALENDAR_DATE ( 2022, 1, 7 ) ;
#61 = AXIS2_PLACEMENT_3D ( 'NONE', #160, #109, #14 ) ;
#62 = DIRECTION ( 'NONE',  ( 1.000000000000000000, 0.000000000000000000, 0.000000000000000000 ) ) ;
#63 = CYLINDRICAL_SURFACE ( 'NONE', #61, 36.14999999999999858 ) ;
#64 = CARTESIAN_POINT ( 'NONE',  ( 0.000000000000000000, 0.000000000000000000, -40.00000000000000000 ) ) ;
#65 = VERTEX_POINT ( 'NONE', #241 ) ;
#66 = AXIS2_PLACEMENT_3D ( 'NONE', #206, #103, #111 ) ;
#67 = EDGE_CURVE ( 'NONE', #53, #101, #202, .T. ) ;
#68 = DIRECTION ( 'NONE',  ( 1.000000000000000000, 0.000000000000000000, -0.000000000000000000 ) ) ;
#69 = APPLICATION_PROTOCOL_DEFINITION ( 'international standard', 'config_control_design', 1994, #145 ) ;
#70 = ORIENTED_EDGE ( 'NONE', *, *, #136, .T. ) ;
#71 = VERTEX_POINT ( 'NONE', #262 ) ;
#72 = LINE ( 'NONE', #181, #264 ) ;
#73 = CC_DESIGN_APPROVAL ( #294, ( #329 ) ) ;
#74 = EDGE_CURVE ( 'NONE', #234, #77, #173, .T. ) ;
#75 = AXIS2_PLACEMENT_3D ( 'NONE', #6, #88, #62 ) ;
#76 = VECTOR ( 'NONE', #198, 1000.000000000000000 ) ;
#77 = VERTEX_POINT ( 'NONE', #243 ) ;
#78 = VERTEX_POINT ( 'NONE', #310 ) ;
#79 = DIRECTION ( 'NONE',  ( -0.000000000000000000, -0.000000000000000000, 1.000000000000000000 ) ) ;
#80 = DATE_AND_TIME ( #58, #21 ) ;
#81 = CLOSED_SHELL ( 'NONE', ( #91, #164, #275, #4, #110, #245, #207, #298, #222 ) ) ;
#82 = CYLINDRICAL_SURFACE ( 'NONE', #327, 41.00000000000000000 ) ;
#83 =( GEOMETRIC_REPRESENTATION_CONTEXT ( 3 ) GLOBAL_UNCERTAINTY_ASSIGNED_CONTEXT ( ( #302 ) ) GLOBAL_UNIT_ASSIGNED_CONTEXT ( ( #114, #18, #115 ) ) REPRESENTATION_CONTEXT ( 'NONE', 'WORKASPACE' ) );
#84 = PERSON_AND_ORGANIZATION_ROLE ( 'creator' ) ;
#85 = ADVANCED_BREP_SHAPE_REPRESENTATION ( 'R4-109', ( #324, #168 ), #83 ) ;
#86 = LINE ( 'NONE', #237, #194 ) ;
#87 = CALENDAR_DATE ( 2022, 1, 7 ) ;
#88 = DIRECTION ( 'NONE',  ( 0.000000000000000000, 0.000000000000000000, 1.000000000000000000 ) ) ;
#89 = CYLINDRICAL_SURFACE ( 'NONE', #5, 45.00000000000000711 ) ;
#90 = CARTESIAN_POINT ( 'NONE',  ( 0.000000000000000000, 0.000000000000000000, 30.00000000000000000 ) ) ;
#91 = ADVANCED_FACE ( 'NONE', ( #141 ), #63, .F. ) ;
#92 = MECHANICAL_CONTEXT ( 'NONE', #128, 'mechanical' ) ;
#93 = CARTESIAN_POINT ( 'NONE',  ( 0.000000000000000000, 0.000000000000000000, 0.000000000000000000 ) ) ;
#94 = FACE_BOUND ( 'NONE', #48, .T. ) ;
#95 = DIRECTION ( 'NONE',  ( 0.000000000000000000, 0.000000000000000000, 1.000000000000000000 ) ) ;
#96 = EDGE_LOOP ( 'NONE', ( #186, #126, #299, #26 ) ) ;
#97 = CC_DESIGN_PERSON_AND_ORGANIZATION_ASSIGNMENT ( #247, #43, ( #10 ) ) ;
#98 = DIRECTION ( 'NONE',  ( -0.000000000000000000, -0.000000000000000000, -1.000000000000000000 ) ) ;
#99 = DIRECTION ( 'NONE',  ( -0.000000000000000000, -0.000000000000000000, 1.000000000000000000 ) ) ;
#100 = VECTOR ( 'NONE', #132, 1000.000000000000000 ) ;
#101 = VERTEX_POINT ( 'NONE', #11 ) ;
#102 = ORIENTED_EDGE ( 'NONE', *, *, #320, .T. ) ;
#103 = DIRECTION ( 'NONE',  ( 0.000000000000000000, 0.000000000000000000, 1.000000000000000000 ) ) ;
#104 = PERSON_AND_ORGANIZATION ( #201, #271 ) ;
#105 = AXIS2_PLACEMENT_3D ( 'NONE', #195, #261, #214 ) ;
#106 = PRODUCT_RELATED_PRODUCT_CATEGORY ( 'detail', '', ( #10 ) ) ;
#107 = CARTESIAN_POINT ( 'NONE',  ( -41.00000000000000000, 5.021051876504148963E-15, -40.00000000000000000 ) ) ;
#108 = DATE_AND_TIME ( #133, #152 ) ;
#109 = DIRECTION ( 'NONE',  ( -0.000000000000000000, -0.000000000000000000, 1.000000000000000000 ) ) ;
#110 = ADVANCED_FACE ( 'NONE', ( #314 ), #89, .T. ) ;
#111 = DIRECTION ( 'NONE',  ( 1.000000000000000000, 0.000000000000000000, 0.000000000000000000 ) ) ;
#112 = SHAPE_DEFINITION_REPRESENTATION ( #135, #85 ) ;
#113 = LOCAL_TIME ( 8, 20, 25.00000000000000000, #305 ) ;
#114 =( LENGTH_UNIT ( ) NAMED_UNIT ( * ) SI_UNIT ( .MILLI., .METRE. ) );
#115 =( NAMED_UNIT ( * ) SI_UNIT ( $, .STERADIAN. ) SOLID_ANGLE_UNIT ( ) );
#116 = DIRECTION ( 'NONE',  ( 1.000000000000000000, 0.000000000000000000, 0.000000000000000000 ) ) ;
#117 = DIRECTION ( 'NONE',  ( -0.000000000000000000, -0.000000000000000000, -1.000000000000000000 ) ) ;
#118 = APPROVAL_STATUS ( 'not_yet_approved' ) ;
#119 = ORIENTED_EDGE ( 'NONE', *, *, #256, .F. ) ;
#120 = APPROVAL ( #118, 'UNSPECIFIED' ) ;
#121 = ORIENTED_EDGE ( 'NONE', *, *, #67, .F. ) ;
#122 = PRODUCT_DEFINITION_FORMATION_WITH_SPECIFIED_SOURCE ( 'ANY', '', #10, .NOT_KNOWN. ) ;
#123 = EDGE_CURVE ( 'NONE', #124, #276, #59, .T. ) ;
#124 = VERTEX_POINT ( 'NONE', #167 ) ;
#125 = ORIENTED_EDGE ( 'NONE', *, *, #74, .F. ) ;
#126 = ORIENTED_EDGE ( 'NONE', *, *, #286, .F. ) ;
#127 = CC_DESIGN_DATE_AND_TIME_ASSIGNMENT ( #240, #236, ( #220 ) ) ;
#128 = APPLICATION_CONTEXT ( 'configuration controlled 3d designs of mechanical parts and assemblies' ) ;
#129 = CIRCLE ( 'NONE', #151, 45.00000000000000711 ) ;
#130 = ORIENTED_EDGE ( 'NONE', *, *, #190, .T. ) ;
#131 = FACE_OUTER_BOUND ( 'NONE', #96, .T. ) ;
#132 = DIRECTION ( 'NONE',  ( -0.000000000000000000, -0.000000000000000000, 1.000000000000000000 ) ) ;
#133 = CALENDAR_DATE ( 2022, 1, 7 ) ;
#134 = AXIS2_PLACEMENT_3D ( 'NONE', #210, #307, #191 ) ;
#135 = PRODUCT_DEFINITION_SHAPE ( 'NONE', 'NONE',  #220 ) ;
#136 = EDGE_CURVE ( 'NONE', #71, #276, #318, .T. ) ;
#137 = DIRECTION ( 'NONE',  ( 1.000000000000000000, 0.000000000000000000, 0.000000000000000000 ) ) ;
#138 = APPROVAL_DATE_TIME ( #80, #120 ) ;
#139 = CARTESIAN_POINT ( 'NONE',  ( 0.000000000000000000, 0.000000000000000000, -40.00000000000000000 ) ) ;
#140 = APPROVAL_STATUS ( 'not_yet_approved' ) ;
#141 = FACE_OUTER_BOUND ( 'NONE', #185, .T. ) ;
#142 = AXIS2_PLACEMENT_3D ( 'NONE', #212, #165, #55 ) ;
#143 = CYLINDRICAL_SURFACE ( 'NONE', #178, 45.00000000000000711 ) ;
#144 = CIRCLE ( 'NONE', #45, 45.00000000000000711 ) ;
#145 = APPLICATION_CONTEXT ( 'configuration controlled 3d designs of mechanical parts and assemblies' ) ;
#146 = CARTESIAN_POINT ( 'NONE',  ( 0.000000000000000000, 0.000000000000000000, 30.00000000000000000 ) ) ;
#147 = ORIENTED_EDGE ( 'NONE', *, *, #123, .F. ) ;
#148 = DIRECTION ( 'NONE',  ( -0.000000000000000000, -0.000000000000000000, -1.000000000000000000 ) ) ;
#149 = EDGE_CURVE ( 'NONE', #234, #101, #263, .T. ) ;
#150 = LINE ( 'NONE', #226, #255 ) ;
#151 = AXIS2_PLACEMENT_3D ( 'NONE', #37, #209, #192 ) ;
#152 = LOCAL_TIME ( 8, 20, 25.00000000000000000, #169 ) ;
#153 = EDGE_LOOP ( 'NONE', ( #121, #155 ) ) ;
#154 = ORIENTED_EDGE ( 'NONE', *, *, #256, .T. ) ;
#155 = ORIENTED_EDGE ( 'NONE', *, *, #19, .F. ) ;
#156 = CC_DESIGN_PERSON_AND_ORGANIZATION_ASSIGNMENT ( #283, #215, ( #122 ) ) ;
#157 = FACE_OUTER_BOUND ( 'NONE', #232, .T. ) ;
#158 = ORIENTED_EDGE ( 'NONE', *, *, #265, .F. ) ;
#159 = CIRCLE ( 'NONE', #203, 41.00000000000000000 ) ;
#160 = CARTESIAN_POINT ( 'NONE',  ( 0.000000000000000000, 0.000000000000000000, -40.00100000000001188 ) ) ;
#161 = CC_DESIGN_PERSON_AND_ORGANIZATION_ASSIGNMENT ( #193, #38, ( #329 ) ) ;
#162 = DIRECTION ( 'NONE',  ( -0.000000000000000000, -0.000000000000000000, 1.000000000000000000 ) ) ;
#163 = DATE_AND_TIME ( #87, #113 ) ;
#164 = ADVANCED_FACE ( 'NONE', ( #266 ), #82, .T. ) ;
#165 = DIRECTION ( 'NONE',  ( 0.000000000000000000, 0.000000000000000000, -1.000000000000000000 ) ) ;
#166 = CALENDAR_DATE ( 2022, 1, 7 ) ;
#167 = CARTESIAN_POINT ( 'NONE',  ( -45.00000000000000711, 0.000000000000000000, 30.00000000000000000 ) ) ;
#168 = AXIS2_PLACEMENT_3D ( 'NONE', #93, #293, #116 ) ;
#169 = COORDINATED_UNIVERSAL_TIME_OFFSET ( 1, 0, .AHEAD. ) ;
#170 = CARTESIAN_POINT ( 'NONE',  ( 0.000000000000000000, 0.000000000000000000, 30.00000000000000000 ) ) ;
#171 = APPROVAL_DATE_TIME ( #108, #13 ) ;
#172 = CARTESIAN_POINT ( 'NONE',  ( 0.000000000000000000, 0.000000000000000000, 30.00000000000000000 ) ) ;
#173 = CIRCLE ( 'NONE', #142, 41.00000000000000000 ) ;
#174 = PLANE ( 'NONE',  #322 ) ;
#175 = EDGE_LOOP ( 'NONE', ( #125, #251, #325, #158 ) ) ;
#176 = CARTESIAN_POINT ( 'NONE',  ( 0.000000000000000000, 0.000000000000000000, 30.00000000000000000 ) ) ;
#177 = EDGE_CURVE ( 'NONE', #252, #124, #129, .T. ) ;
#178 = AXIS2_PLACEMENT_3D ( 'NONE', #90, #148, #270 ) ;
#179 = ORIENTED_EDGE ( 'NONE', *, *, #42, .F. ) ;
#180 = EDGE_LOOP ( 'NONE', ( #154, #28 ) ) ;
#181 = CARTESIAN_POINT ( 'NONE',  ( 36.14999999999999858, 0.000000000000000000, -40.00100000000001188 ) ) ;
#182 = AXIS2_PLACEMENT_3D ( 'NONE', #31, #312, #8 ) ;
#183 = AXIS2_PLACEMENT_3D ( 'NONE', #139, #235, #3 ) ;
#184 = APPROVAL_PERSON_ORGANIZATION ( #23, #120, #227 ) ;
#185 = EDGE_LOOP ( 'NONE', ( #328, #130, #1, #257 ) ) ;
#186 = ORIENTED_EDGE ( 'NONE', *, *, #149, .F. ) ;
#187 = CARTESIAN_POINT ( 'NONE',  ( 0.000000000000000000, 0.000000000000000000, -40.00000000000000000 ) ) ;
#188 = APPROVAL_ROLE ( '' ) ;
#189 = CARTESIAN_POINT ( 'NONE',  ( 0.000000000000000000, 0.000000000000000000, -40.00000000000000000 ) ) ;
#190 = EDGE_CURVE ( 'NONE', #65, #24, #86, .T. ) ;
#191 = DIRECTION ( 'NONE',  ( 1.000000000000000000, 0.000000000000000000, 0.000000000000000000 ) ) ;
#192 = DIRECTION ( 'NONE',  ( 1.000000000000000000, 0.000000000000000000, 0.000000000000000000 ) ) ;
#193 = PERSON_AND_ORGANIZATION ( #201, #271 ) ;
#194 = VECTOR ( 'NONE', #79, 1000.000000000000000 ) ;
#195 = CARTESIAN_POINT ( 'NONE',  ( 0.000000000000000000, 0.000000000000000000, -40.00000000000000000 ) ) ;
#196 = CARTESIAN_POINT ( 'NONE',  ( -45.00000000000000711, 0.000000000000000000, 0.000000000000000000 ) ) ;
#197 = CC_DESIGN_SECURITY_CLASSIFICATION ( #329, ( #122 ) ) ;
#198 = DIRECTION ( 'NONE',  ( -0.000000000000000000, -0.000000000000000000, 1.000000000000000000 ) ) ;
#199 = EDGE_CURVE ( 'NONE', #301, #65, #44, .T. ) ;
#200 = LINE ( 'NONE', #225, #76 ) ;
#201 = PERSON ( 'UNSPECIFIED', 'UNSPECIFIED', 'UNSPECIFIED', ('UNSPECIFIED'), ('UNSPECIFIED'), ('UNSPECIFIED') ) ;
#202 = CIRCLE ( 'NONE', #134, 41.00000000000000000 ) ;
#203 = AXIS2_PLACEMENT_3D ( 'NONE', #22, #39, #295 ) ;
#204 = ORIENTED_EDGE ( 'NONE', *, *, #136, .F. ) ;
#205 = DIRECTION ( 'NONE',  ( 1.000000000000000000, 0.000000000000000000, 0.000000000000000000 ) ) ;
#206 = CARTESIAN_POINT ( 'NONE',  ( 0.000000000000000000, 0.000000000000000000, 0.000000000000000000 ) ) ;
#207 = ADVANCED_FACE ( 'NONE', ( #131 ), #36, .T. ) ;
#208 = ORIENTED_EDGE ( 'NONE', *, *, #311, .F. ) ;
#209 = DIRECTION ( 'NONE',  ( 0.000000000000000000, 0.000000000000000000, 1.000000000000000000 ) ) ;
#210 = CARTESIAN_POINT ( 'NONE',  ( 0.000000000000000000, 0.000000000000000000, 0.000000000000000000 ) ) ;
#211 = CIRCLE ( 'NONE', #75, 36.14999999999999858 ) ;
#212 = CARTESIAN_POINT ( 'NONE',  ( 0.000000000000000000, 0.000000000000000000, -40.00000000000000000 ) ) ;
#213 = SECURITY_CLASSIFICATION_LEVEL ( 'unclassified' ) ;
#214 = DIRECTION ( 'NONE',  ( -1.000000000000000000, 0.000000000000000000, 0.000000000000000000 ) ) ;
#215 = PERSON_AND_ORGANIZATION_ROLE ( 'design_supplier' ) ;
#216 = CC_DESIGN_PERSON_AND_ORGANIZATION_ASSIGNMENT ( #7, #313, ( #220 ) ) ;
#217 = CARTESIAN_POINT ( 'NONE',  ( 41.00000000000000000, 0.000000000000000000, 0.000000000000000000 ) ) ;
#218 = AXIS2_PLACEMENT_3D ( 'NONE', #146, #250, #68 ) ;
#219 = PLANE ( 'NONE',  #218 ) ;
#220 = PRODUCT_DEFINITION ( 'UNKNOWN', '', #122, #30 ) ;
#221 = APPLICATION_PROTOCOL_DEFINITION ( 'international standard', 'config_control_design', 1994, #128 ) ;
#222 = ADVANCED_FACE ( 'NONE', ( #282 ), #57, .F. ) ;
#223 = EDGE_LOOP ( 'NONE', ( #323, #254, #25, #29 ) ) ;
#224 = CIRCLE ( 'NONE', #15, 41.00000000000000000 ) ;
#225 = CARTESIAN_POINT ( 'NONE',  ( 41.00000000000000000, 0.000000000000000000, -40.00000000000000000 ) ) ;
#226 = CARTESIAN_POINT ( 'NONE',  ( 45.00000000000000711, 5.510910596163090344E-15, 30.00000000000000000 ) ) ;
#227 = APPROVAL_ROLE ( '' ) ;
#228 = ORIENTED_EDGE ( 'NONE', *, *, #123, .T. ) ;
#229 = CARTESIAN_POINT ( 'NONE',  ( 0.000000000000000000, 0.000000000000000000, 0.000000000000000000 ) ) ;
#230 = EDGE_CURVE ( 'NONE', #78, #24, #211, .T. ) ;
#231 = FACE_BOUND ( 'NONE', #153, .T. ) ;
#232 = EDGE_LOOP ( 'NONE', ( #179, #204 ) ) ;
#233 = AXIS2_PLACEMENT_3D ( 'NONE', #187, #239, #281 ) ;
#234 = VERTEX_POINT ( 'NONE', #40 ) ;
#235 = DIRECTION ( 'NONE',  ( -0.000000000000000000, -0.000000000000000000, 1.000000000000000000 ) ) ;
#236 = DATE_TIME_ROLE ( 'creation_date' ) ;
#237 = CARTESIAN_POINT ( 'NONE',  ( -36.14999999999999858, 4.427098178917682074E-15, -40.00100000000001188 ) ) ;
#238 = VECTOR ( 'NONE', #289, 1000.000000000000000 ) ;
#239 = DIRECTION ( 'NONE',  ( -0.000000000000000000, -0.000000000000000000, 1.000000000000000000 ) ) ;
#240 = DATE_AND_TIME ( #60, #288 ) ;
#241 = CARTESIAN_POINT ( 'NONE',  ( -36.14999999999999858, 4.427098178917682074E-15, -40.00000000000000000 ) ) ;
#242 = APPROVAL_DATE_TIME ( #267, #294 ) ;
#243 = CARTESIAN_POINT ( 'NONE',  ( 41.00000000000000000, 0.000000000000000000, -40.00000000000000000 ) ) ;
#244 = DIRECTION ( 'NONE',  ( 1.000000000000000000, 0.000000000000000000, 0.000000000000000000 ) ) ;
#245 = ADVANCED_FACE ( 'NONE', ( #94, #316 ), #219, .T. ) ;
#246 = FACE_BOUND ( 'NONE', #51, .T. ) ;
#247 = PERSON_AND_ORGANIZATION ( #201, #271 ) ;
#248 = ORIENTED_EDGE ( 'NONE', *, *, #199, .T. ) ;
#249 = FACE_OUTER_BOUND ( 'NONE', #303, .T. ) ;
#250 = DIRECTION ( 'NONE',  ( 0.000000000000000000, 0.000000000000000000, 1.000000000000000000 ) ) ;
#251 = ORIENTED_EDGE ( 'NONE', *, *, #149, .T. ) ;
#252 = VERTEX_POINT ( 'NONE', #17 ) ;
#253 = CIRCLE ( 'NONE', #66, 45.00000000000000711 ) ;
#254 = ORIENTED_EDGE ( 'NONE', *, *, #199, .F. ) ;
#255 = VECTOR ( 'NONE', #117, 1000.000000000000000 ) ;
#256 = EDGE_CURVE ( 'NONE', #124, #252, #144, .T. ) ;
#257 = ORIENTED_EDGE ( 'NONE', *, *, #32, .F. ) ;
#258 = DIRECTION ( 'NONE',  ( 1.000000000000000000, 0.000000000000000000, -0.000000000000000000 ) ) ;
#259 = ORIENTED_EDGE ( 'NONE', *, *, #286, .T. ) ;
#260 = CC_DESIGN_APPROVAL ( #120, ( #220 ) ) ;
#261 = DIRECTION ( 'NONE',  ( -0.000000000000000000, -0.000000000000000000, 1.000000000000000000 ) ) ;
#262 = CARTESIAN_POINT ( 'NONE',  ( 45.00000000000000711, 5.510910596163090344E-15, 0.000000000000000000 ) ) ;
#263 = LINE ( 'NONE', #107, #100 ) ;
#264 = VECTOR ( 'NONE', #99, 1000.000000000000000 ) ;
#265 = EDGE_CURVE ( 'NONE', #77, #53, #200, .T. ) ;
#266 = FACE_OUTER_BOUND ( 'NONE', #175, .T. ) ;
#267 = DATE_AND_TIME ( #166, #291 ) ;
#268 = DIRECTION ( 'NONE',  ( -0.000000000000000000, -0.000000000000000000, -1.000000000000000000 ) ) ;
#269 = DATE_TIME_ROLE ( 'classification_date' ) ;
#270 = DIRECTION ( 'NONE',  ( -1.000000000000000000, 0.000000000000000000, 0.000000000000000000 ) ) ;
#271 = ORGANIZATION ( 'UNSPECIFIED', 'UNSPECIFIED', '' ) ;
#272 = CARTESIAN_POINT ( 'NONE',  ( 36.14999999999999858, 0.000000000000000000, -40.00000000000000000 ) ) ;
#273 = ORIENTED_EDGE ( 'NONE', *, *, #320, .F. ) ;
#274 = ORIENTED_EDGE ( 'NONE', *, *, #42, .T. ) ;
#275 = ADVANCED_FACE ( 'NONE', ( #249 ), #143, .T. ) ;
#276 = VERTEX_POINT ( 'NONE', #196 ) ;
#277 = CIRCLE ( 'NONE', #49, 36.14999999999999858 ) ;
#278 = EDGE_LOOP ( 'NONE', ( #273, #119, #228, #274 ) ) ;
#279 = CC_DESIGN_PERSON_AND_ORGANIZATION_ASSIGNMENT ( #104, #84, ( #122 ) ) ;
#280 = CARTESIAN_POINT ( 'NONE',  ( 0.000000000000000000, 0.000000000000000000, 0.000000000000000000 ) ) ;
#281 = DIRECTION ( 'NONE',  ( -1.000000000000000000, 0.000000000000000000, 0.000000000000000000 ) ) ;
#282 = FACE_OUTER_BOUND ( 'NONE', #223, .T. ) ;
#283 = PERSON_AND_ORGANIZATION ( #201, #271 ) ;
#284 = CARTESIAN_POINT ( 'NONE',  ( -45.00000000000000711, 0.000000000000000000, 30.00000000000000000 ) ) ;
#285 = APPROVAL_STATUS ( 'not_yet_approved' ) ;
#286 = EDGE_CURVE ( 'NONE', #77, #234, #159, .T. ) ;
#287 = DIRECTION ( 'NONE',  ( 1.000000000000000000, 0.000000000000000000, 0.000000000000000000 ) ) ;
#288 = LOCAL_TIME ( 8, 20, 25.00000000000000000, #308 ) ;
#289 = DIRECTION ( 'NONE',  ( -0.000000000000000000, -0.000000000000000000, -1.000000000000000000 ) ) ;
#290 = DIRECTION ( 'NONE',  ( 0.000000000000000000, 0.000000000000000000, 1.000000000000000000 ) ) ;
#291 = LOCAL_TIME ( 8, 20, 25.00000000000000000, #315 ) ;
#292 = CIRCLE ( 'NONE', #105, 36.14999999999999858 ) ;
#293 = DIRECTION ( 'NONE',  ( 0.000000000000000000, 0.000000000000000000, 1.000000000000000000 ) ) ;
#294 = APPROVAL ( #285, 'UNSPECIFIED' ) ;
#295 = DIRECTION ( 'NONE',  ( -1.000000000000000000, 0.000000000000000000, 0.000000000000000000 ) ) ;
#296 = COORDINATED_UNIVERSAL_TIME_OFFSET ( 1, 0, .AHEAD. ) ;
#297 = ORIENTED_EDGE ( 'NONE', *, *, #52, .T. ) ;
#298 = ADVANCED_FACE ( 'NONE', ( #246, #46 ), #174, .T. ) ;
#299 = ORIENTED_EDGE ( 'NONE', *, *, #265, .T. ) ;
#300 = CARTESIAN_POINT ( 'NONE',  ( -36.14999999999999858, 4.427098178917682074E-15, 30.00000000000000000 ) ) ;
#301 = VERTEX_POINT ( 'NONE', #272 ) ;
#302 = UNCERTAINTY_MEASURE_WITH_UNIT (LENGTH_MEASURE( 1.000000000000000082E-05 ), #114, 'distance_accuracy_value', 'NONE');
#303 = EDGE_LOOP ( 'NONE', ( #20, #102, #70, #147 ) ) ;
#304 = DIRECTION ( 'NONE',  ( -1.000000000000000000, 0.000000000000000000, 0.000000000000000000 ) ) ;
#305 = COORDINATED_UNIVERSAL_TIME_OFFSET ( 1, 0, .AHEAD. ) ;
#306 = AXIS2_PLACEMENT_3D ( 'NONE', #280, #54, #258 ) ;
#307 = DIRECTION ( 'NONE',  ( -0.000000000000000000, -0.000000000000000000, -1.000000000000000000 ) ) ;
#308 = COORDINATED_UNIVERSAL_TIME_OFFSET ( 1, 0, .AHEAD. ) ;
#309 = CC_DESIGN_APPROVAL ( #13, ( #122 ) ) ;
#310 = CARTESIAN_POINT ( 'NONE',  ( 36.14999999999999858, 0.000000000000000000, 30.00000000000000000 ) ) ;
#311 = EDGE_CURVE ( 'NONE', #24, #78, #277, .T. ) ;
#312 = DIRECTION ( 'NONE',  ( 0.000000000000000000, 0.000000000000000000, 1.000000000000000000 ) ) ;
#313 = PERSON_AND_ORGANIZATION_ROLE ( 'creator' ) ;
#314 = FACE_OUTER_BOUND ( 'NONE', #278, .T. ) ;
#315 = COORDINATED_UNIVERSAL_TIME_OFFSET ( 1, 0, .AHEAD. ) ;
#316 = FACE_OUTER_BOUND ( 'NONE', #180, .T. ) ;
#317 = DIRECTION ( 'NONE',  ( -1.000000000000000000, 0.000000000000000000, -0.000000000000000000 ) ) ;
#318 = CIRCLE ( 'NONE', #182, 45.00000000000000711 ) ;
#319 = DIRECTION ( 'NONE',  ( 0.000000000000000000, 0.000000000000000000, -1.000000000000000000 ) ) ;
#320 = EDGE_CURVE ( 'NONE', #252, #71, #150, .T. ) ;
#321 = DIRECTION ( 'NONE',  ( 1.000000000000000000, 0.000000000000000000, 0.000000000000000000 ) ) ;
#322 = AXIS2_PLACEMENT_3D ( 'NONE', #64, #319, #317 ) ;
#323 = ORIENTED_EDGE ( 'NONE', *, *, #190, .F. ) ;
#324 = MANIFOLD_SOLID_BREP ( 'Extrusion3', #81 ) ;
#325 = ORIENTED_EDGE ( 'NONE', *, *, #19, .T. ) ;
#326 = ORIENTED_EDGE ( 'NONE', *, *, #230, .F. ) ;
#327 = AXIS2_PLACEMENT_3D ( 'NONE', #189, #35, #137 ) ;
#328 = ORIENTED_EDGE ( 'NONE', *, *, #52, .F. ) ;
#329 = SECURITY_CLASSIFICATION ( '', '', #213 ) ;
ENDSEC;
END-ISO-10303-21;
