ISO-10303-21;
HEADER;
FILE_DESCRIPTION (( 'STEP AP203' ),
    '1' );
FILE_NAME ('R4-110.STEP',
    '2022-07-01T06:20:55',
    ( '' ),
    ( '' ),
    'SwSTEP 2.0',
    'SolidWorks 2022',
    '' );
FILE_SCHEMA (( 'CONFIG_CONTROL_DESIGN' ));
ENDSEC;

DATA;
#1 = FACE_BOUND ( 'NONE', #160, .T. ) ;
#2 = EDGE_CURVE ( 'NONE', #162, #12, #265, .T. ) ;
#3 = COORDINATED_UNIVERSAL_TIME_OFFSET ( 1, 0, .AHEAD. ) ;
#4 = CYLINDRICAL_SURFACE ( 'NONE', #149, 47.50000000000000711 ) ;
#5 = DIRECTION ( 'NONE',  ( 1.000000000000000000, 0.000000000000000000, 0.000000000000000000 ) ) ;
#6 = AXIS2_PLACEMENT_3D ( 'NONE', #98, #40, #227 ) ;
#7 =( GEOMETRIC_REPRESENTATION_CONTEXT ( 3 ) GLOBAL_UNCERTAINTY_ASSIGNED_CONTEXT ( ( #209 ) ) GLOBAL_UNIT_ASSIGNED_CONTEXT ( ( #215, #237, #311 ) ) REPRESENTATION_CONTEXT ( 'NONE', 'WORKASPACE' ) );
#8 = CC_DESIGN_APPROVAL ( #99, ( #134 ) ) ;
#9 = FACE_OUTER_BOUND ( 'NONE', #41, .T. ) ;
#10 = EDGE_LOOP ( 'NONE', ( #142, #213 ) ) ;
#11 = EDGE_CURVE ( 'NONE', #248, #117, #110, .T. ) ;
#12 = VERTEX_POINT ( 'NONE', #194 ) ;
#13 = VERTEX_POINT ( 'NONE', #295 ) ;
#14 = CARTESIAN_POINT ( 'NONE',  ( -42.50000000000000711, 5.204748896376252474E-15, -50.00100000000000477 ) ) ;
#15 = DATE_AND_TIME ( #233, #107 ) ;
#16 = EDGE_LOOP ( 'NONE', ( #220, #114 ) ) ;
#17 = CARTESIAN_POINT ( 'NONE',  ( 42.50000000000000711, 0.000000000000000000, 30.00000000000000000 ) ) ;
#18 = ADVANCED_FACE ( 'NONE', ( #270, #246 ), #60, .T. ) ;
#19 = CYLINDRICAL_SURFACE ( 'NONE', #272, 42.50000000000000711 ) ;
#20 = DIRECTION ( 'NONE',  ( 0.000000000000000000, 0.000000000000000000, 1.000000000000000000 ) ) ;
#21 = APPLICATION_CONTEXT ( 'configuration controlled 3d designs of mechanical parts and assemblies' ) ;
#22 = DIRECTION ( 'NONE',  ( -1.000000000000000000, 0.000000000000000000, 0.000000000000000000 ) ) ;
#23 = CC_DESIGN_APPROVAL ( #29, ( #310 ) ) ;
#24 = CARTESIAN_POINT ( 'NONE',  ( 0.000000000000000000, 0.000000000000000000, 30.00000000000000000 ) ) ;
#25 = COORDINATED_UNIVERSAL_TIME_OFFSET ( 1, 0, .AHEAD. ) ;
#26 = APPROVAL_ROLE ( '' ) ;
#27 = AXIS2_PLACEMENT_3D ( 'NONE', #271, #73, #22 ) ;
#28 = DATE_AND_TIME ( #232, #81 ) ;
#29 = APPROVAL ( #50, 'UNSPECIFIED' ) ;
#30 = APPLICATION_PROTOCOL_DEFINITION ( 'international standard', 'config_control_design', 1994, #104 ) ;
#31 = CARTESIAN_POINT ( 'NONE',  ( 42.50000000000000711, 0.000000000000000000, -50.00100000000000477 ) ) ;
#32 = DATE_AND_TIME ( #258, #179 ) ;
#33 = DIRECTION ( 'NONE',  ( -0.000000000000000000, -0.000000000000000000, 1.000000000000000000 ) ) ;
#34 = EDGE_CURVE ( 'NONE', #140, #35, #231, .T. ) ;
#35 = VERTEX_POINT ( 'NONE', #138 ) ;
#36 = DIRECTION ( 'NONE',  ( -0.000000000000000000, -0.000000000000000000, 1.000000000000000000 ) ) ;
#37 = CIRCLE ( 'NONE', #185, 42.50000000000000711 ) ;
#38 = EDGE_LOOP ( 'NONE', ( #82, #238, #164, #39 ) ) ;
#39 = ORIENTED_EDGE ( 'NONE', *, *, #327, .F. ) ;
#40 = DIRECTION ( 'NONE',  ( -0.000000000000000000, -0.000000000000000000, -1.000000000000000000 ) ) ;
#41 = EDGE_LOOP ( 'NONE', ( #161, #321 ) ) ;
#42 = VECTOR ( 'NONE', #144, 1000.000000000000000 ) ;
#43 = DIRECTION ( 'NONE',  ( 0.000000000000000000, 0.000000000000000000, -1.000000000000000000 ) ) ;
#44 = ADVANCED_FACE ( 'NONE', ( #317, #1 ), #250, .F. ) ;
#45 = DIRECTION ( 'NONE',  ( 1.000000000000000000, 0.000000000000000000, 0.000000000000000000 ) ) ;
#46 = DIRECTION ( 'NONE',  ( 0.000000000000000000, 0.000000000000000000, 1.000000000000000000 ) ) ;
#47 = DIRECTION ( 'NONE',  ( 0.000000000000000000, 0.000000000000000000, 1.000000000000000000 ) ) ;
#48 = PRODUCT ( 'R4-110', 'R4-110', '', ( #131 ) ) ;
#49 = CARTESIAN_POINT ( 'NONE',  ( 0.000000000000000000, 0.000000000000000000, 0.000000000000000000 ) ) ;
#50 = APPROVAL_STATUS ( 'not_yet_approved' ) ;
#51 = LINE ( 'NONE', #31, #165 ) ;
#52 = CC_DESIGN_PERSON_AND_ORGANIZATION_ASSIGNMENT ( #181, #130, ( #48 ) ) ;
#53 = CARTESIAN_POINT ( 'NONE',  ( 47.50000000000000711, 0.000000000000000000, -50.00000000000000000 ) ) ;
#54 = CIRCLE ( 'NONE', #178, 47.50000000000000711 ) ;
#55 = EDGE_CURVE ( 'NONE', #162, #13, #158, .T. ) ;
#56 = CARTESIAN_POINT ( 'NONE',  ( 0.000000000000000000, 0.000000000000000000, 30.00000000000000000 ) ) ;
#57 = APPROVAL_DATE_TIME ( #84, #99 ) ;
#58 = DIRECTION ( 'NONE',  ( 1.000000000000000000, 0.000000000000000000, -0.000000000000000000 ) ) ;
#59 = PERSON_AND_ORGANIZATION ( #125, #294 ) ;
#60 = PLANE ( 'NONE',  #148 ) ;
#61 = ORIENTED_EDGE ( 'NONE', *, *, #190, .T. ) ;
#62 = ORIENTED_EDGE ( 'NONE', *, *, #211, .F. ) ;
#63 = CIRCLE ( 'NONE', #102, 52.50000000000000000 ) ;
#64 = EDGE_LOOP ( 'NONE', ( #157, #65, #217, #193 ) ) ;
#65 = ORIENTED_EDGE ( 'NONE', *, *, #205, .F. ) ;
#66 = PRODUCT_DEFINITION ( 'UNKNOWN', '', #134, #115 ) ;
#67 = ORIENTED_EDGE ( 'NONE', *, *, #327, .T. ) ;
#68 = ORIENTED_EDGE ( 'NONE', *, *, #108, .F. ) ;
#69 = EDGE_CURVE ( 'NONE', #196, #113, #324, .T. ) ;
#70 = CARTESIAN_POINT ( 'NONE',  ( 0.000000000000000000, 0.000000000000000000, 0.000000000000000000 ) ) ;
#71 = AXIS2_PLACEMENT_3D ( 'NONE', #147, #47, #150 ) ;
#72 = DIRECTION ( 'NONE',  ( 0.000000000000000000, 0.000000000000000000, 1.000000000000000000 ) ) ;
#73 = DIRECTION ( 'NONE',  ( -0.000000000000000000, -0.000000000000000000, -1.000000000000000000 ) ) ;
#74 = APPROVAL_ROLE ( '' ) ;
#75 = DIRECTION ( 'NONE',  ( -1.000000000000000000, 0.000000000000000000, 0.000000000000000000 ) ) ;
#76 = CYLINDRICAL_SURFACE ( 'NONE', #326, 47.50000000000000711 ) ;
#77 = LINE ( 'NONE', #186, #239 ) ;
#78 = FACE_OUTER_BOUND ( 'NONE', #318, .T. ) ;
#79 = EDGE_CURVE ( 'NONE', #117, #113, #111, .T. ) ;
#80 = DIRECTION ( 'NONE',  ( -0.000000000000000000, -0.000000000000000000, 1.000000000000000000 ) ) ;
#81 = LOCAL_TIME ( 8, 20, 55.00000000000000000, #25 ) ;
#82 = ORIENTED_EDGE ( 'NONE', *, *, #234, .F. ) ;
#83 = CARTESIAN_POINT ( 'NONE',  ( -52.50000000000000000, 0.000000000000000000, 30.00000000000000000 ) ) ;
#84 = DATE_AND_TIME ( #312, #240 ) ;
#85 = CIRCLE ( 'NONE', #278, 52.50000000000000000 ) ;
#86 = DIRECTION ( 'NONE',  ( 0.000000000000000000, 0.000000000000000000, 1.000000000000000000 ) ) ;
#87 = ORIENTED_EDGE ( 'NONE', *, *, #55, .F. ) ;
#88 = ORIENTED_EDGE ( 'NONE', *, *, #69, .T. ) ;
#89 = VERTEX_POINT ( 'NONE', #200 ) ;
#90 = CARTESIAN_POINT ( 'NONE',  ( 47.50000000000000711, 0.000000000000000000, -50.00000000000000000 ) ) ;
#91 = AXIS2_PLACEMENT_3D ( 'NONE', #123, #101, #206 ) ;
#92 = ORIENTED_EDGE ( 'NONE', *, *, #34, .F. ) ;
#93 = EDGE_CURVE ( 'NONE', #35, #140, #85, .T. ) ;
#94 = CARTESIAN_POINT ( 'NONE',  ( 52.50000000000000000, 6.429395695523603956E-15, 0.000000000000000000 ) ) ;
#95 = DATE_TIME_ROLE ( 'creation_date' ) ;
#96 = PERSON_AND_ORGANIZATION ( #125, #294 ) ;
#97 = CARTESIAN_POINT ( 'NONE',  ( 52.50000000000000000, 6.429395695523603956E-15, 30.00000000000000000 ) ) ;
#98 = CARTESIAN_POINT ( 'NONE',  ( 0.000000000000000000, 0.000000000000000000, 0.000000000000000000 ) ) ;
#99 = APPROVAL ( #173, 'UNSPECIFIED' ) ;
#100 = CARTESIAN_POINT ( 'NONE',  ( 47.50000000000000711, 0.000000000000000000, 0.000000000000000000 ) ) ;
#101 = DIRECTION ( 'NONE',  ( -0.000000000000000000, -0.000000000000000000, 1.000000000000000000 ) ) ;
#102 = AXIS2_PLACEMENT_3D ( 'NONE', #257, #235, #210 ) ;
#103 = DIRECTION ( 'NONE',  ( 1.000000000000000000, 0.000000000000000000, 0.000000000000000000 ) ) ;
#104 = APPLICATION_CONTEXT ( 'configuration controlled 3d designs of mechanical parts and assemblies' ) ;
#105 = EDGE_CURVE ( 'NONE', #196, #248, #54, .T. ) ;
#106 = FACE_OUTER_BOUND ( 'NONE', #64, .T. ) ;
#107 = LOCAL_TIME ( 8, 20, 55.00000000000000000, #188 ) ;
#108 = EDGE_CURVE ( 'NONE', #13, #162, #133, .T. ) ;
#109 = CARTESIAN_POINT ( 'NONE',  ( 0.000000000000000000, 0.000000000000000000, -50.00000000000000000 ) ) ;
#110 = LINE ( 'NONE', #90, #189 ) ;
#111 = CIRCLE ( 'NONE', #6, 47.50000000000000711 ) ;
#112 = ADVANCED_FACE ( 'NONE', ( #169 ), #19, .F. ) ;
#113 = VERTEX_POINT ( 'NONE', #298 ) ;
#114 = ORIENTED_EDGE ( 'NONE', *, *, #55, .T. ) ;
#115 = DESIGN_CONTEXT ( 'detailed design', #21, 'design' ) ;
#116 = ORIENTED_EDGE ( 'NONE', *, *, #146, .T. ) ;
#117 = VERTEX_POINT ( 'NONE', #100 ) ;
#118 = CARTESIAN_POINT ( 'NONE',  ( 0.000000000000000000, 0.000000000000000000, 30.00000000000000000 ) ) ;
#119 = CYLINDRICAL_SURFACE ( 'NONE', #27, 52.50000000000000000 ) ;
#120 = CARTESIAN_POINT ( 'NONE',  ( 0.000000000000000000, 0.000000000000000000, -50.00000000000000000 ) ) ;
#121 = CIRCLE ( 'NONE', #307, 47.50000000000000711 ) ;
#122 = AXIS2_PLACEMENT_3D ( 'NONE', #306, #154, #256 ) ;
#123 = CARTESIAN_POINT ( 'NONE',  ( 0.000000000000000000, 0.000000000000000000, -50.00000000000000000 ) ) ;
#124 = PERSON_AND_ORGANIZATION ( #125, #294 ) ;
#125 = PERSON ( 'UNSPECIFIED', 'UNSPECIFIED', 'UNSPECIFIED', ('UNSPECIFIED'), ('UNSPECIFIED'), ('UNSPECIFIED') ) ;
#126 = DIRECTION ( 'NONE',  ( 0.000000000000000000, 0.000000000000000000, 1.000000000000000000 ) ) ;
#127 = ADVANCED_FACE ( 'NONE', ( #143 ), #119, .T. ) ;
#128 = DIRECTION ( 'NONE',  ( 1.000000000000000000, 0.000000000000000000, 0.000000000000000000 ) ) ;
#129 = PERSON_AND_ORGANIZATION_ROLE ( 'design_supplier' ) ;
#130 = PERSON_AND_ORGANIZATION_ROLE ( 'design_owner' ) ;
#131 = MECHANICAL_CONTEXT ( 'NONE', #104, 'mechanical' ) ;
#132 = ORIENTED_EDGE ( 'NONE', *, *, #93, .F. ) ;
#133 = CIRCLE ( 'NONE', #259, 42.50000000000000711 ) ;
#134 = PRODUCT_DEFINITION_FORMATION_WITH_SPECIFIED_SOURCE ( 'ANY', '', #48, .NOT_KNOWN. ) ;
#135 = EDGE_LOOP ( 'NONE', ( #132, #92 ) ) ;
#136 = VERTEX_POINT ( 'NONE', #17 ) ;
#137 = ADVANCED_FACE ( 'NONE', ( #254 ), #204, .T. ) ;
#138 = CARTESIAN_POINT ( 'NONE',  ( -52.50000000000000000, 0.000000000000000000, 0.000000000000000000 ) ) ;
#139 = ORIENTED_EDGE ( 'NONE', *, *, #205, .T. ) ;
#140 = VERTEX_POINT ( 'NONE', #94 ) ;
#141 = APPROVAL ( #153, 'UNSPECIFIED' ) ;
#142 = ORIENTED_EDGE ( 'NONE', *, *, #190, .F. ) ;
#143 = FACE_OUTER_BOUND ( 'NONE', #192, .T. ) ;
#144 = DIRECTION ( 'NONE',  ( -0.000000000000000000, -0.000000000000000000, 1.000000000000000000 ) ) ;
#145 = LINE ( 'NONE', #97, #267 ) ;
#146 = EDGE_CURVE ( 'NONE', #12, #136, #245, .T. ) ;
#147 = CARTESIAN_POINT ( 'NONE',  ( 0.000000000000000000, 0.000000000000000000, 0.000000000000000000 ) ) ;
#148 = AXIS2_PLACEMENT_3D ( 'NONE', #109, #296, #218 ) ;
#149 = AXIS2_PLACEMENT_3D ( 'NONE', #286, #155, #128 ) ;
#150 = DIRECTION ( 'NONE',  ( 1.000000000000000000, 0.000000000000000000, -0.000000000000000000 ) ) ;
#151 = PLANE ( 'NONE',  #202 ) ;
#152 = APPROVAL_DATE_TIME ( #32, #29 ) ;
#153 = APPROVAL_STATUS ( 'not_yet_approved' ) ;
#154 = DIRECTION ( 'NONE',  ( -0.000000000000000000, -0.000000000000000000, 1.000000000000000000 ) ) ;
#155 = DIRECTION ( 'NONE',  ( -0.000000000000000000, -0.000000000000000000, 1.000000000000000000 ) ) ;
#156 = PERSON_AND_ORGANIZATION ( #125, #294 ) ;
#157 = ORIENTED_EDGE ( 'NONE', *, *, #69, .F. ) ;
#158 = CIRCLE ( 'NONE', #91, 42.50000000000000711 ) ;
#159 = PRODUCT_RELATED_PRODUCT_CATEGORY ( 'detail', '', ( #48 ) ) ;
#160 = EDGE_LOOP ( 'NONE', ( #168, #167 ) ) ;
#161 = ORIENTED_EDGE ( 'NONE', *, *, #211, .T. ) ;
#162 = VERTEX_POINT ( 'NONE', #198 ) ;
#163 = CIRCLE ( 'NONE', #212, 52.50000000000000000 ) ;
#164 = ORIENTED_EDGE ( 'NONE', *, *, #34, .T. ) ;
#165 = VECTOR ( 'NONE', #80, 1000.000000000000000 ) ;
#166 = LOCAL_TIME ( 8, 20, 55.00000000000000000, #222 ) ;
#167 = ORIENTED_EDGE ( 'NONE', *, *, #175, .F. ) ;
#168 = ORIENTED_EDGE ( 'NONE', *, *, #79, .F. ) ;
#169 = FACE_OUTER_BOUND ( 'NONE', #219, .T. ) ;
#170 = APPROVAL_DATE_TIME ( #15, #141 ) ;
#171 = CARTESIAN_POINT ( 'NONE',  ( -47.50000000000000711, 5.817072295949929004E-15, -50.00000000000000000 ) ) ;
#172 = VECTOR ( 'NONE', #36, 1000.000000000000000 ) ;
#173 = APPROVAL_STATUS ( 'not_yet_approved' ) ;
#174 = DIRECTION ( 'NONE',  ( 1.000000000000000000, 0.000000000000000000, 0.000000000000000000 ) ) ;
#175 = EDGE_CURVE ( 'NONE', #113, #117, #319, .T. ) ;
#176 = DIRECTION ( 'NONE',  ( -0.000000000000000000, -0.000000000000000000, 1.000000000000000000 ) ) ;
#177 = DIRECTION ( 'NONE',  ( 1.000000000000000000, 0.000000000000000000, 0.000000000000000000 ) ) ;
#178 = AXIS2_PLACEMENT_3D ( 'NONE', #301, #43, #223 ) ;
#179 = LOCAL_TIME ( 8, 20, 55.00000000000000000, #3 ) ;
#180 = CC_DESIGN_DATE_AND_TIME_ASSIGNMENT ( #28, #230, ( #310 ) ) ;
#181 = PERSON_AND_ORGANIZATION ( #125, #294 ) ;
#182 = PERSON_AND_ORGANIZATION_ROLE ( 'classification_officer' ) ;
#183 = DIRECTION ( 'NONE',  ( -0.000000000000000000, -0.000000000000000000, 1.000000000000000000 ) ) ;
#184 = PERSON_AND_ORGANIZATION ( #125, #294 ) ;
#185 = AXIS2_PLACEMENT_3D ( 'NONE', #24, #20, #45 ) ;
#186 = CARTESIAN_POINT ( 'NONE',  ( -52.50000000000000000, 0.000000000000000000, 30.00000000000000000 ) ) ;
#187 = SHAPE_DEFINITION_REPRESENTATION ( #280, #264 ) ;
#188 = COORDINATED_UNIVERSAL_TIME_OFFSET ( 1, 0, .AHEAD. ) ;
#189 = VECTOR ( 'NONE', #33, 1000.000000000000000 ) ;
#190 = EDGE_CURVE ( 'NONE', #136, #12, #37, .T. ) ;
#191 = DIRECTION ( 'NONE',  ( 1.000000000000000000, 0.000000000000000000, 0.000000000000000000 ) ) ;
#192 = EDGE_LOOP ( 'NONE', ( #216, #62, #67, #243 ) ) ;
#193 = ORIENTED_EDGE ( 'NONE', *, *, #79, .T. ) ;
#194 = CARTESIAN_POINT ( 'NONE',  ( -42.50000000000000711, 5.204748896376252474E-15, 30.00000000000000000 ) ) ;
#195 = CC_DESIGN_APPROVAL ( #141, ( #66 ) ) ;
#196 = VERTEX_POINT ( 'NONE', #171 ) ;
#197 = ORIENTED_EDGE ( 'NONE', *, *, #2, .F. ) ;
#198 = CARTESIAN_POINT ( 'NONE',  ( -42.50000000000000711, 5.204748896376252474E-15, -50.00000000000000000 ) ) ;
#199 = EDGE_CURVE ( 'NONE', #89, #140, #145, .T. ) ;
#200 = CARTESIAN_POINT ( 'NONE',  ( 52.50000000000000000, 6.429395695523603956E-15, 30.00000000000000000 ) ) ;
#201 = COORDINATED_UNIVERSAL_TIME_OFFSET ( 1, 0, .AHEAD. ) ;
#202 = AXIS2_PLACEMENT_3D ( 'NONE', #56, #288, #58 ) ;
#203 = CARTESIAN_POINT ( 'NONE',  ( 0.000000000000000000, 0.000000000000000000, -50.00100000000000477 ) ) ;
#204 = CYLINDRICAL_SURFACE ( 'NONE', #314, 52.50000000000000000 ) ;
#205 = EDGE_CURVE ( 'NONE', #248, #196, #121, .T. ) ;
#206 = DIRECTION ( 'NONE',  ( -1.000000000000000000, 0.000000000000000000, 0.000000000000000000 ) ) ;
#207 = AXIS2_PLACEMENT_3D ( 'NONE', #49, #126, #103 ) ;
#208 = DIRECTION ( 'NONE',  ( -0.000000000000000000, -0.000000000000000000, -1.000000000000000000 ) ) ;
#209 = UNCERTAINTY_MEASURE_WITH_UNIT (LENGTH_MEASURE( 1.000000000000000082E-05 ), #215, 'distance_accuracy_value', 'NONE');
#210 = DIRECTION ( 'NONE',  ( 1.000000000000000000, 0.000000000000000000, 0.000000000000000000 ) ) ;
#211 = EDGE_CURVE ( 'NONE', #262, #89, #163, .T. ) ;
#212 = AXIS2_PLACEMENT_3D ( 'NONE', #299, #46, #177 ) ;
#213 = ORIENTED_EDGE ( 'NONE', *, *, #146, .F. ) ;
#214 = CC_DESIGN_SECURITY_CLASSIFICATION ( #310, ( #134 ) ) ;
#215 =( LENGTH_UNIT ( ) NAMED_UNIT ( * ) SI_UNIT ( .MILLI., .METRE. ) );
#216 = ORIENTED_EDGE ( 'NONE', *, *, #199, .F. ) ;
#217 = ORIENTED_EDGE ( 'NONE', *, *, #11, .T. ) ;
#218 = DIRECTION ( 'NONE',  ( -1.000000000000000000, 0.000000000000000000, -0.000000000000000000 ) ) ;
#219 = EDGE_LOOP ( 'NONE', ( #197, #68, #292, #61 ) ) ;
#220 = ORIENTED_EDGE ( 'NONE', *, *, #108, .T. ) ;
#221 = DIRECTION ( 'NONE',  ( -0.000000000000000000, -0.000000000000000000, -1.000000000000000000 ) ) ;
#222 = COORDINATED_UNIVERSAL_TIME_OFFSET ( 1, 0, .AHEAD. ) ;
#223 = DIRECTION ( 'NONE',  ( -1.000000000000000000, 0.000000000000000000, 0.000000000000000000 ) ) ;
#224 = DIRECTION ( 'NONE',  ( 0.000000000000000000, 0.000000000000000000, -1.000000000000000000 ) ) ;
#225 = DATE_AND_TIME ( #300, #166 ) ;
#226 = APPROVAL_PERSON_ORGANIZATION ( #184, #29, #308 ) ;
#227 = DIRECTION ( 'NONE',  ( 1.000000000000000000, 0.000000000000000000, 0.000000000000000000 ) ) ;
#228 = CARTESIAN_POINT ( 'NONE',  ( 0.000000000000000000, 0.000000000000000000, -50.00000000000000000 ) ) ;
#229 = CARTESIAN_POINT ( 'NONE',  ( 0.000000000000000000, 0.000000000000000000, -50.00000000000000000 ) ) ;
#230 = DATE_TIME_ROLE ( 'classification_date' ) ;
#231 = CIRCLE ( 'NONE', #289, 52.50000000000000000 ) ;
#232 = CALENDAR_DATE ( 2022, 1, 7 ) ;
#233 = CALENDAR_DATE ( 2022, 1, 7 ) ;
#234 = EDGE_CURVE ( 'NONE', #89, #262, #63, .T. ) ;
#235 = DIRECTION ( 'NONE',  ( 0.000000000000000000, 0.000000000000000000, 1.000000000000000000 ) ) ;
#236 = PERSON_AND_ORGANIZATION ( #125, #294 ) ;
#237 =( NAMED_UNIT ( * ) PLANE_ANGLE_UNIT ( ) SI_UNIT ( $, .RADIAN. ) );
#238 = ORIENTED_EDGE ( 'NONE', *, *, #199, .T. ) ;
#239 = VECTOR ( 'NONE', #208, 1000.000000000000000 ) ;
#240 = LOCAL_TIME ( 8, 20, 55.00000000000000000, #201 ) ;
#241 = FACE_BOUND ( 'NONE', #10, .T. ) ;
#242 = CC_DESIGN_PERSON_AND_ORGANIZATION_ASSIGNMENT ( #236, #283, ( #134 ) ) ;
#243 = ORIENTED_EDGE ( 'NONE', *, *, #93, .T. ) ;
#244 = ORIENTED_EDGE ( 'NONE', *, *, #175, .T. ) ;
#245 = CIRCLE ( 'NONE', #285, 42.50000000000000711 ) ;
#246 = FACE_OUTER_BOUND ( 'NONE', #291, .T. ) ;
#247 = ORIENTED_EDGE ( 'NONE', *, *, #105, .T. ) ;
#248 = VERTEX_POINT ( 'NONE', #53 ) ;
#249 = ADVANCED_FACE ( 'NONE', ( #241, #9 ), #151, .T. ) ;
#250 = PLANE ( 'NONE',  #71 ) ;
#251 = DIRECTION ( 'NONE',  ( 1.000000000000000000, 0.000000000000000000, 0.000000000000000000 ) ) ;
#252 = DIRECTION ( 'NONE',  ( -0.000000000000000000, -0.000000000000000000, -1.000000000000000000 ) ) ;
#253 = CC_DESIGN_DATE_AND_TIME_ASSIGNMENT ( #225, #95, ( #66 ) ) ;
#254 = FACE_OUTER_BOUND ( 'NONE', #38, .T. ) ;
#255 = CARTESIAN_POINT ( 'NONE',  ( 0.000000000000000000, 0.000000000000000000, 30.00000000000000000 ) ) ;
#256 = DIRECTION ( 'NONE',  ( 1.000000000000000000, 0.000000000000000000, 0.000000000000000000 ) ) ;
#257 = CARTESIAN_POINT ( 'NONE',  ( 0.000000000000000000, 0.000000000000000000, 30.00000000000000000 ) ) ;
#258 = CALENDAR_DATE ( 2022, 1, 7 ) ;
#259 = AXIS2_PLACEMENT_3D ( 'NONE', #228, #302, #297 ) ;
#260 = FACE_OUTER_BOUND ( 'NONE', #287, .T. ) ;
#261 = SECURITY_CLASSIFICATION_LEVEL ( 'unclassified' ) ;
#262 = VERTEX_POINT ( 'NONE', #83 ) ;
#263 = CARTESIAN_POINT ( 'NONE',  ( 0.000000000000000000, 0.000000000000000000, 0.000000000000000000 ) ) ;
#264 = ADVANCED_BREP_SHAPE_REPRESENTATION ( 'R4-110', ( #282, #207 ), #7 ) ;
#265 = LINE ( 'NONE', #14, #172 ) ;
#266 = ADVANCED_FACE ( 'NONE', ( #78 ), #76, .T. ) ;
#267 = VECTOR ( 'NONE', #252, 1000.000000000000000 ) ;
#268 = APPROVAL_PERSON_ORGANIZATION ( #124, #99, #74 ) ;
#269 = ORIENTED_EDGE ( 'NONE', *, *, #304, .F. ) ;
#270 = FACE_BOUND ( 'NONE', #16, .T. ) ;
#271 = CARTESIAN_POINT ( 'NONE',  ( 0.000000000000000000, 0.000000000000000000, 30.00000000000000000 ) ) ;
#272 = AXIS2_PLACEMENT_3D ( 'NONE', #203, #176, #174 ) ;
#273 = CARTESIAN_POINT ( 'NONE',  ( -47.50000000000000711, 5.817072295949929004E-15, -50.00000000000000000 ) ) ;
#274 = DIRECTION ( 'NONE',  ( -0.000000000000000000, -0.000000000000000000, -1.000000000000000000 ) ) ;
#275 = PERSON_AND_ORGANIZATION_ROLE ( 'creator' ) ;
#276 = DIRECTION ( 'NONE',  ( 0.000000000000000000, 0.000000000000000000, 1.000000000000000000 ) ) ;
#277 = DIRECTION ( 'NONE',  ( 1.000000000000000000, 0.000000000000000000, 0.000000000000000000 ) ) ;
#278 = AXIS2_PLACEMENT_3D ( 'NONE', #329, #276, #251 ) ;
#279 = PERSON_AND_ORGANIZATION ( #125, #294 ) ;
#280 = PRODUCT_DEFINITION_SHAPE ( 'NONE', 'NONE',  #66 ) ;
#281 = ADVANCED_FACE ( 'NONE', ( #106 ), #4, .T. ) ;
#282 = MANIFOLD_SOLID_BREP ( 'Extrusion3', #303 ) ;
#283 = PERSON_AND_ORGANIZATION_ROLE ( 'creator' ) ;
#284 = CYLINDRICAL_SURFACE ( 'NONE', #122, 42.50000000000000711 ) ;
#285 = AXIS2_PLACEMENT_3D ( 'NONE', #255, #72, #328 ) ;
#286 = CARTESIAN_POINT ( 'NONE',  ( 0.000000000000000000, 0.000000000000000000, -50.00000000000000000 ) ) ;
#287 = EDGE_LOOP ( 'NONE', ( #87, #316, #116, #269 ) ) ;
#288 = DIRECTION ( 'NONE',  ( 0.000000000000000000, 0.000000000000000000, 1.000000000000000000 ) ) ;
#289 = AXIS2_PLACEMENT_3D ( 'NONE', #263, #86, #191 ) ;
#290 = CC_DESIGN_PERSON_AND_ORGANIZATION_ASSIGNMENT ( #59, #182, ( #310 ) ) ;
#291 = EDGE_LOOP ( 'NONE', ( #139, #247 ) ) ;
#292 = ORIENTED_EDGE ( 'NONE', *, *, #304, .T. ) ;
#293 = ADVANCED_FACE ( 'NONE', ( #260 ), #284, .F. ) ;
#294 = ORGANIZATION ( 'UNSPECIFIED', 'UNSPECIFIED', '' ) ;
#295 = CARTESIAN_POINT ( 'NONE',  ( 42.50000000000000711, 0.000000000000000000, -50.00000000000000000 ) ) ;
#296 = DIRECTION ( 'NONE',  ( 0.000000000000000000, 0.000000000000000000, -1.000000000000000000 ) ) ;
#297 = DIRECTION ( 'NONE',  ( -1.000000000000000000, 0.000000000000000000, 0.000000000000000000 ) ) ;
#298 = CARTESIAN_POINT ( 'NONE',  ( -47.50000000000000711, 5.817072295949929004E-15, 0.000000000000000000 ) ) ;
#299 = CARTESIAN_POINT ( 'NONE',  ( 0.000000000000000000, 0.000000000000000000, 30.00000000000000000 ) ) ;
#300 = CALENDAR_DATE ( 2022, 1, 7 ) ;
#301 = CARTESIAN_POINT ( 'NONE',  ( 0.000000000000000000, 0.000000000000000000, -50.00000000000000000 ) ) ;
#302 = DIRECTION ( 'NONE',  ( -0.000000000000000000, -0.000000000000000000, 1.000000000000000000 ) ) ;
#303 = CLOSED_SHELL ( 'NONE', ( #293, #266, #137, #44, #127, #249, #281, #18, #112 ) ) ;
#304 = EDGE_CURVE ( 'NONE', #13, #136, #51, .T. ) ;
#305 = APPLICATION_PROTOCOL_DEFINITION ( 'international standard', 'config_control_design', 1994, #21 ) ;
#306 = CARTESIAN_POINT ( 'NONE',  ( 0.000000000000000000, 0.000000000000000000, -50.00100000000000477 ) ) ;
#307 = AXIS2_PLACEMENT_3D ( 'NONE', #120, #224, #75 ) ;
#308 = APPROVAL_ROLE ( '' ) ;
#309 = CC_DESIGN_PERSON_AND_ORGANIZATION_ASSIGNMENT ( #96, #275, ( #66 ) ) ;
#310 = SECURITY_CLASSIFICATION ( '', '', #261 ) ;
#311 =( NAMED_UNIT ( * ) SI_UNIT ( $, .STERADIAN. ) SOLID_ANGLE_UNIT ( ) );
#312 = CALENDAR_DATE ( 2022, 1, 7 ) ;
#313 = ORIENTED_EDGE ( 'NONE', *, *, #11, .F. ) ;
#314 = AXIS2_PLACEMENT_3D ( 'NONE', #118, #221, #322 ) ;
#315 = ORIENTED_EDGE ( 'NONE', *, *, #105, .F. ) ;
#316 = ORIENTED_EDGE ( 'NONE', *, *, #2, .T. ) ;
#317 = FACE_OUTER_BOUND ( 'NONE', #135, .T. ) ;
#318 = EDGE_LOOP ( 'NONE', ( #315, #88, #244, #313 ) ) ;
#319 = CIRCLE ( 'NONE', #325, 47.50000000000000711 ) ;
#320 = APPROVAL_PERSON_ORGANIZATION ( #279, #141, #26 ) ;
#321 = ORIENTED_EDGE ( 'NONE', *, *, #234, .T. ) ;
#322 = DIRECTION ( 'NONE',  ( -1.000000000000000000, 0.000000000000000000, 0.000000000000000000 ) ) ;
#323 = CC_DESIGN_PERSON_AND_ORGANIZATION_ASSIGNMENT ( #156, #129, ( #134 ) ) ;
#324 = LINE ( 'NONE', #273, #42 ) ;
#325 = AXIS2_PLACEMENT_3D ( 'NONE', #70, #274, #277 ) ;
#326 = AXIS2_PLACEMENT_3D ( 'NONE', #229, #183, #5 ) ;
#327 = EDGE_CURVE ( 'NONE', #262, #35, #77, .T. ) ;
#328 = DIRECTION ( 'NONE',  ( 1.000000000000000000, 0.000000000000000000, 0.000000000000000000 ) ) ;
#329 = CARTESIAN_POINT ( 'NONE',  ( 0.000000000000000000, 0.000000000000000000, 0.000000000000000000 ) ) ;
ENDSEC;
END-ISO-10303-21;
